MUZBANK



A Most Complete Bank Of Music Information

МУЗЫКАЛЬНО-ИНФОРМАЦИОННЫЙ БАНК

Поиск по сайту







    LLocal H • Manipulator (аккорды и текст - chords & lyrics)


    251

    Print

    Видео «Manipulator (Local H)»

    Видео клипы к песне подбираются автоматически сайтом youtube. Возможны некоторые несоответствия клипов песне.

    ↑ Спрятать рекламу ↑



    Download


     
    
    
    Regular tuning
    
    / = Slide
    pm - Palm Mute
    
    Intro
    
       pm....         pm......
    e|----------------------------------|
    b|----------------------------------| repeat a few times
    g|----------------------------------|
    d|-9-9-9-9--9///3--3-3-3-3--3///9---|
    a|-9-9-9-9--9///3--3-3-3-3--3///9---|
    E|-7-7-7-7---------1-1-1-1----------|
    
    
    Verse
      PM.....................*.....
    e|-------------------------------------------|
    b|-------------------------------------------| * shows the part where
    g|-------------------------------------------|  the verse ends and the
    d|---------9///3---------3///9---------------|  chorus begins. When it
    a|---------9///3---------3///9---------------|  reach * hit and f-chord
    E|-7-7-7-7-------1-1-1-1---------------------|  without PM
    
    Chorus
    e|----------------------------------------|
    b|----------------------------------------| Just keep on repeating
    g|----------------------------------------|
    d|-9--9-9///3--3-3///9--9-9///3--3-3////--|
    a|-9--9-9///3--3-3///9--9-9///3--3-3////--|
    E|-7--7-7///1--1-1///7--7-7///1--1-1////--|
    
    
    Bass line throughout the whole song
    e|-------------------------------------|
    b|-------------------------------------|
    g|-------------------------------------|
    d|-------------------------------------|
    a|-------------------------------------|
    E|-1/////7--7/////1--1/////7--7/////1--|
     

    Тональность:

    Нет текста!



    Назад
    Рекомендуем посмотреть другие песни исполнителя «Local H»:

    • Комментарии Facebook ()
    • Комментарии ВКонтакте



    Добавить в Избранное Браузера
    Сохранить здесь Очистить


    x

    0


    +
    -

    +
    -

    -

    Авторизация





    Зарегистрироваться

    M

    Дата и время

    • 09:08:46
       

    Социальные ссылки


    Наши приложения

    • Muzbank App Play Market
    • Muzbank Amazon App