MUZBANK



A Most Complete Bank Of Music Information

МУЗЫКАЛЬНО-ИНФОРМАЦИОННЫЙ БАНК

Поиск по сайту







    LLohan Lindsay • Ultimate (аккорды и текст - chords & lyrics)


    229

    Print

    Видео «Ultimate (Lohan Lindsay)»

    Видео клипы к песне подбираются автоматически сайтом youtube. Возможны некоторые несоответствия клипов песне.

    ↑ Спрятать рекламу ↑



    Download



     
    
    
    Lindsay Lohan
    Ultimate
    Tabbed by TAUBUT
    
    Standard Tuning
    p-pause
    /  - bend up too
    ~ - vibrate
    > - slide too
    
    Intro  (harmonics)                   *LISTEN FOR PATTERN*
    -19---------------|---------------|-----------------------------------|
    ---19-19-19--pause|---------------|-----------------------------------|
    ------------------|-11-11-11>13>11|-11-11-11>9>11-11-11-11>13>11-11>16|
    ------------------|---------------|-----------------------------------|
    ------------------|--9--9--9>11>-9|--9--9--9>7>-9--9--9--9>11>-9--9>14|
    ------------------|---------------|-----------------------------------|
    
    Verse *palm mute*                                                (harmonics)
    ---------|---------|---------|--------|--------|--------|--------|19--------
    ---------|---------|---------|--------|--------|--------|--------|--19-19-19
    ---------|---------|44444444-|--------|--------|--------|44444444|----------
    -66666666|-22222222|44444444-|44444444|66666666|22222222|44444444|----------
    -66666666|-22222222|22222222-|44444444|66666666|22222222|22222222|----------
    -44444444|-00000000|---------|22222222|44444444|00000000|--------|----------
    
    (repeat opening part)
    
    Verse *palm mute*                      *WAH-WAH-PETTAL*
    ---------|---------|---------|--------|-------------------------------------|
    ---------|---------|---------|--------|-------------------------------------|
    ---------|---------|44444444-|--------|-------------------------------------|
    -66666666|-22222222|44444444-|44444444|6-6-6-6-6-6-6-6-9-9-9-9-11-11-11-11-11
    -66666666|-22222222|22222222-|44444444|6-6-6-6-6-6-6-6-9-9-9-9-11-11-11-11-11
    -44444444|-00000000|---------|22222222|4-4-4-4-4-4-4-4-7-7-7-7--9--9--9--9--9
    
    Chorus                         *repeat without pause 2x*
    ----------------------------|p|----------------------------|
    -44-444--------66-666-99-999|p|-44-444--------66-666-99-999|
    -44-444-44-444-44-444-77-777|p|-44-444-44-444-44-444-77-777|
    -22-222-22-222-44-444-77-777|p|-22-222-22-222-44-444-77-777|
    --------22-222--------------|p|--------22-222--------------|
    ----------------------------|p|----------------------------|
    
    *listen for patter*
    |---------------|
    |---------------|
    |-11>13>11>16---|
    |---------------|
    |--9>11>-9>14---|
    |---------------|
    
    **play verse**
    
    **play chorse**
    
    (SOLO - THIS IS PERFECT)
    
    -----------------------------------------------------------------19~~~-19/21
    -7-slide-19~~~---19--19---19/2119~~~-17-16-17-16-17-16-17-16----------------
    ---------------16--16-----------------------------------------16-------------
    -------------16--16----------------------------------------------------------
    -----------------------------------------------------------------------------
    -----------------------------------------------------------------------------
    
    ---------------------21------------|19-19-19-18-18-18-16-16-16-14-14-14-
    -19--17-19-19/21~~~----19-19/2119|------------------------------------
    -----------------------------------|------------------------------------
    -----------------------------------|------------------------------------
    -----------------------------------|------------------------------------
    -----------------------------------|------------------------------------
    
    -12-12-12-11-11-11------------------|-----------------------------------
    -------------------14-14-14-12-12-12|-12-14-12-14/1614-12-14/16~~~----
    ------------------------------------|-----------------------------------
    ------------------------------------|-----------------------------------
    ------------------------------------|-----------------------------------
    ------------------------------------|-----------------------------------
    
    *play octives with wah-wah*
    
    ------------------------------------|------21/2321~~~------------------|
    -9--9--9--11--12--14----------------|-----------------------------------|
    -6--6--6---8---9--11----------------|-----------------------------------|
    ------------------------------------|-----------------------------------|
    ------------------------------------|-----------------------------------|
    ------------------------------------|-----------------------------------|
    
    *play chorus (up one step)*
     

    Тональность:

    Нет текста!



    Назад
    Рекомендуем посмотреть другие песни исполнителя «Lohan Lindsay»:

    • Комментарии Facebook ()
    • Комментарии ВКонтакте



    Добавить в Избранное Браузера
    Сохранить здесь Очистить


    x

    0


    +
    -

    +
    -

    -

    Авторизация





    Зарегистрироваться

    M

    Дата и время

    • 09:55:25
       

    Социальные ссылки


    Наши приложения

    • Muzbank App Play Market
    • Muzbank Amazon App