MUZBANK



A Most Complete Bank Of Music Information

МУЗЫКАЛЬНО-ИНФОРМАЦИОННЫЙ БАНК

Поиск по сайту







    LLost Prophets • A Million Miles (аккорды и текст - chords & lyrics)


    230

    Print

    Видео «A Million Miles (Lost Prophets)»

    Видео клипы к песне подбираются автоматически сайтом youtube. Возможны некоторые несоответствия клипов песне.

    ↑ Спрятать рекламу ↑



    Download


     
    
    
    Surfhaleysurf-drmmrsgirl@aol.com
    
    i love lostprophets. there music rocks and i wanted to share there incredible 
    instrumental with everyone......so here goes nothing....
    
    Drop D
    
    Intro
    
    Guitar1                               }
    |---12-----12-----12-----12---------|--12-----12-----12-----12---------|  |
    |-------12-----12-----12-----12-----|------14-----14-----14-----14-----|  |
    |------------------------------------|-----------------------------------|  |
    |------------------------------------|-----------------------------------|  |
    |------------------------------------|-----------------------------------|  |
    |------------------------------------|-----------------------------------|  |
    Continued                 |     Repeat all X 2
    |-------12-----12-----12-----12-----|------12-----12-----12-----12------|  |
    |---12-----12-----12-----12---------|--10-----10-----10-----10----------|  |
    |------------------------------------|------------------------------------|  |
    |------------------------------------|------------------------------------|  |
    |------------------------------------|------------------------------------|  |
    |------------------------------------|------------------------------------|  |
      }
    Guitar2
    |------------------|         |-------|
    |------------------|         |-------|
    |------------------|         |-------|
    |------------------|         |-------|
    |------------------| X 4  |-------|
    |---4----------7--|         |---4--|
    |---4----------7--|         |---4--|
    Intro
    Guitar 2                               |  Guitar 1+2
    |-----------------------|----------------------------------------------------------|
    |-----------------------|----------------------------------------------------------|
    |-----------------------|----------------------------------------------------------|Guitar 2 X4
    |-----------------------|----------------------------------------------------------| 
    |---4-4---4*-4*-4*-4*---|---4--4--4--4--7--7--7--7--9--9--9--9--11--11--11--11---|
    |---4-4---4*-4-*4*-4*---|---4--4--4--4--7--7--7--7--9--9--9--9--11--11--11--11---|
    Continued, Guitar1 this then 2nd bit above me
    |--------------------------------------------------------------------|
    |--------------------------------------------------------------------|
    |---11~-----11~-----11~----11-p-9-h-11-p-9-h-11-p9--9~--|
    |--------------------------------------------------------------------|
    |--------------------------------------------------------------------|
    |--------------------------------------------------------------------|
    |--------------------------------------------------------------------|
    Guitar 1
    Continued
    
    |------------------------------------|         |-----------------------------------|
    |------------------------------------|         |-----------------------------------|
    |---11-11-11-11-11-11-11-11---------|  X2  |---11-11-11-11-11-11--9-9--|
    |------------------------------------|         |-----------------------------------|
    |------------------------------------|         |-----------------------------------|
    |------------------------------------|         |-----------------------------------|
    p.m      .........                                                         ........
    Continued
    |---------------------|----------------------------------------------------------------|
    |---------------------|----------------------------------------------------------------|
    |---9-9-9-9-9-9-9-9-- |---11-----11-----11-----11-p-9------11-----11------11-9-h-11--|
    |--------------------- |-------11-----11-----11----------11-----11-----11-------------| X2
    |---------------------|----------------------------------------------------------------|
    |---------------------|----------------------------------------------------------------|
    P.m   ..........                           .................                           ........
    Continued
    |--------------------------------------------------------------------|
    |--------------------------------------------------------------------|
    |---11~-----11~-----11~----11-p-9-h-11-p-9-h-11-p9--9~--|
    |--------------------------------------------------------------------|
    |--------------------------------------------------------------------|
    |--------------------------------------------------------------------|
    |--------------------------------------------------------------------|
    Continued
    |-------------------------------------------------------------------|
    |-------------------------------------------------------------------|
    |-------------------------------------------------------------------|
    |-------------------------------------------------------------------|
    |---4--4--4--4--7--7--7--7--9--9--9--9--11--11--11--11----|
    |---4--4--4--4--7--7--7--7--9--9--9--9--11--11--11--11----|
    Chorus
    Guitar 1
    |--------------------------------------------------------------------------------|
    |--------------------------------------------------------------------------------|
    |---11-13-p-11-9-11-p-9-x-9--11-13-p-11-13-p-11-9-11-p-9-x-x-9--|  X 6
    |--------------------------------------------------------------------------------|
    |--------------------------------------------------------------------------------|
    |--------------------------------------------------------------------------------|
    Continued
    |-----------------------|
    |-------14-p12-14~--|
    |---12-----------------| Then do the above 2X
    |-----------------------|
    |-----------------------|
    |-----------------------|
    Guitar 2
    |----------------------------------------------------------------------------------|
    |----------------------------------------------------------------------------------|
    |----------------------------------------------------------------------------------|
    |----------------------------------------------------------------------------------|
    |---4--4--4-4-4-4--4--4--4-4-4-4--2--2--2-2-2-2--4--4-4--7--7-7--9--9--9-9-9-9--|
    |---4--4--4-4-4-4--4--4--4-4-4-4--2--2--2-2-2-2--4--4-4--7--7-7--9--9--9-9-9-9--|
    Continued
    |-----------------------------------------------------------|
    |-----------------------------------------------------------|
    |-----------------------------------------------------------|
    |-----------------------------------------------------------|
    |---9--9--9-9-9-9--7--7--7-7-7-7--4--7--9--11-11--| X 2
    |---9--9--9-9-9-9--7--7--7-7-7-7--4--7--9--11-11--|
    2nd verse
    |--------------------------------------------------------------------|
    |--------------------------------------------------------------------|
    |---11~-----11~-----11~----11-p-9-h-11-p-9-h-11-p9--9~--|
    |--------------------------------------------------------------------|
    |--------------------------------------------------------------------|
    |--------------------------------------------------------------------|
    |--------------------------------------------------------------------|
    Continued
    |-------------------------------------------------------------------|
    |-------------------------------------------------------------------|
    |-------------------------------------------------------------------|
    |-------------------------------------------------------------------|
    |---4--4--4--4--7--7--7--7--9--9--9--9--11--11--11--11----|
    |---4--4--4--4--7--7--7--7--9--9--9--9--11--11--11--11----|
    Continued
    |------------------------------------|         |-----------------------------------|
    |------------------------------------|         |-----------------------------------|
    |---11-11-11-11-11-11-11-11---------|  X2  |---11-11-11-11-11-11--9-9--|
    |------------------------------------|         |-----------------------------------|
    |------------------------------------|         |-----------------------------------|
    |------------------------------------|         |-----------------------------------|
    p.m      ..........                                                     ..........
    Continued
    |------------------------|
    |------------------------|
    |---9-9-9-9-9-9-9-9--|
    |------------------------|
    |------------------------|
    |------------------------|
    P.m   .......
    Continued
    |-------------------------------------------------------------------|
    |-------------------------------------------------------------------|
    |-------------------------------------------------------------------|
    |-------------------------------------------------------------------|
    |---4--4--4--4--7--7--7--7--9--9--9--9--11--11--11--11----|
    |---4--4--4--4--7--7--7--7--9--9--9--9--11--11--11--11----|
    Continued
    
    |------------------------------------|         |-----------------------------------|
    |------------------------------------|         |-----------------------------------|
    |---11-11-11-11-11-11-11-11---------|  X2  |---11-11-11-11-11-11--9-9--------|
    |------------------------------------|         |-----------------------------------|
    |------------------------------------|         |-----------------------------------|
    |------------------------------------|         |-----------------------------------|
    p.m      ............                                                    ........
    Continued
    |--------------------|----------------------------------------------------------------|
    |--------------------|----------------------------------------------------------------|
    |---9-9-9-9-9-9-9-9- |---11-----11-----11-----11-p-9------11-----11------11-9-h-11--|
    |------------------- |-------11-----11-----11-----------11-----11-----11--------------| X2
    |-------------------|------------------------------------------------------------------|
    |-------------------|------------------------------------------------------------------|
    P.m   ..........                         ................                           ...........
    Continued   
    |--------------------------------------------------------------------|
    |--------------------------------------------------------------------|
    |---11~-----11~-----11~----11-p-9-h-11-p-9-h-11-p9--9~--|
    |--------------------------------------------------------------------|
    |--------------------------------------------------------------------|
    |--------------------------------------------------------------------|
    |--------------------------------------------------------------------|
    Continued
    |-----------------------------------------------------------|
    |-----------------------------------------------------------|
    |-----------------------------------------------------------|
    |-----------------------------------------------------------|
    |---4--4--4--4--7--7--7--7--9--9--9--9--11--11--11--11----|
    |---4--4--4--4--7--7--7--7--9--9--9--9--11--11--11--11----|
    
    (Repeat Chorus)
    
    Interlude
    |---12-----12-----12-----12------|--12-----12-----12-----12------|  
    |-------12-----12-----12-----12--|------14-----14-----14-----14--|  
    |---------------------------------|--------------------------------|  
    |---------------------------------|--------------------------------|  
    |---------------------------------|--------------------------------|  
    |---------------------------------|--------------------------------|
    Continued
    |-------19-----19-----19-----19-----17-----17-----17-----17--|
    |---14-----14-----14-----14-----14-----14-----14-----14------|
    |--------------------------------------------------------------|
    |--------------------------------------------------------------| X 2
    |--------------------------------------------------------------|
    |--------------------------------------------------------------|
    
    (Repeat chorus)
    Post chorus
    Guitar 1
    |---17-----17------16-----16------19-----19------17-----17--|
    |-------20-------------19--------------22------------20------|
    |-------------------------------------------------------------|
    |-------------------------------------------------------------|
    |-------------------------------------------------------------|
    |-------------------------------------------------------------|
    Continued
    |---17-----17--17------17----16-----16-16-----16-----19------19-19-----19-----|
    |-------20---------20-----19-----19--------19-----16-----22---------22-----21--|
    |--------------------------------------------------------------------------------|
    |--------------------------------------------------------------------------------|
    |--------------------------------------------------------------------------------|
    |--------------------------------------------------------------------------------|
    Continued
    |---17------17-17-----17------|
    |-------20---------20-----19--|
    |------------------------------|
    |------------------------------|
    |------------------------------|
    |------------------------------|
    Guitar 2
    |------------------------------------------------------------|
    |------------------------------------------------------------|
    |------------------------------------------------------------|
    |------------------------------------------------------------|
    |---x-x-4-x-4--x-x-7-x-7--x-x-4-x-4--9-9-9-9--11-11-11-11--| X 2
    |---x-x-4-x-4--x-x-7-x-7--x-x-4-x-4--9-9-9-9--11-11-11-11--|
    Continued
    |------------------------------------------------------------------|
    |------------------------------------------------------------------|
    |---11-13-p-11-9-11-p-9-x-9--11-13-p-11-13-p-11-9-11-p-9-x-x-9--|  X 2
    |------------------------------------------------------------------|
    |------------------------------------------------------------------|
    |------------------------------------------------------------------|
    
    |--------------------|
    |-------14-p12-14~--|
    |---12---------------| then do the above 2 x
    |--------------------|
    |--------------------|
    |--------------------|
    Continued
    |--------------------|
    |--------------------|
    |---11-p-9--9-9-13--| X 24
    |--------------------|
    |--------------------|
    |--------------------|
    Guitar 1
    |--------------|
    |--------------|
    |--------------|
    |---11--11-11--|
    |--------------|
    |--------------|
     

    Тональность:

    Нет текста!



    Назад
    Рекомендуем посмотреть другие песни исполнителя «Lost Prophets»:

    • Комментарии Facebook ()
    • Комментарии ВКонтакте



    Добавить в Избранное Браузера
    Сохранить здесь Очистить


    x

    0


    +
    -

    +
    -

    -

    Авторизация





    Зарегистрироваться

    M

    Дата и время

    • 00:52:00
       

    Социальные ссылки


    Наши приложения

    • Muzbank App Play Market
    • Muzbank Amazon App