MUZBANK



A Most Complete Bank Of Music Information

МУЗЫКАЛЬНО-ИНФОРМАЦИОННЫЙ БАНК








    LLost Prophets • Lately (аккорды и текст - chords & lyrics)


    229

    Print

    Видео «Lately (Lost Prophets)»

    Видео клипы к песне подбираются автоматически сайтом youtube. Возможны некоторые несоответствия клипов песне.

    ↑ Спрятать рекламу ↑





     
    
    
    This is the one u all want!!!
    tabbed by Nik
    its the one off the kerrang wekkender and the NME live thingy!!!
    enjoy - its easy!
    
    Tuning: Drop D (ebgdaD)
    
    Intro
    |-------------------------------------|-second time-|
    |-------------------------------------|-------------|
    |-----3333-----5555-----777-8-7-------|--(7)-xxxx---|
    |-----3333-----5555-----777-8-7-------|--(7)-xxxx---|
    |-1-1------3-3------5-5---------77-8--|--(5)-xxxx---|
    |-1-1------3-3------5-5---------77-8--|--(5)-xxxx---|
    
    HEAVY INTRO - distortion
    |-------------------------------------|
    |-------------------------------------|
    |-------------------------------------| X2
    |-----3333-----5555-----7777-8-------|
    |-1-1------3-3------5-5---------77-8--|
    |-1-1------3-3------5-5---------77-8--|
    
    |-----|
    |-----|
    |-10~-|
    |-10~-|
    |-8-~-|
    |-8-~-|
    
    |-----------------------------|--------------------------------|
    |----6---------6----6/86--|--------------------18------15--|
    |------5-----5---5------------|--------15----14----------------| 
    |---------3~------------------|-----15----15----15-----15------|
    |-----------------------------|--------------------------------|
    |-----------------------------|--------------------------------|
    
    |---------------------------------------------|
    |---------------------------------------------|
    |--------15----14----17-----15----14-12/14-12~| 
    |-----15----15----15-----15----15-------------|
    |---------------------------------------------|
    |---------------------------------------------|
    
    |---------------------------------|
    |---------------------------------|
    |---13-13-13--17-17-17--15-15-15--|
    |---15-15-15--15-15-15--15-15-15--|
    |---------------------------------|
    |---------------------------------|
    
    --------------------------------|
    |--------------------------------|
    |--------------------------------|
    |---10-10/-12-12-/-14-14---15-15-|
    |---8--8-/-10-10-/-12-12-/-13-13-|
    |--------------------------------|
    
    |-----------------------------|
    |-----------------------------|
    |--3-3---3-3--3-3--3-3--5555--|
    |--3-3---3-3--3-3--3-3--5555--|
    |--1-1---1-1--1-1--1-1--3333--|
    |--1-1---1-1--1-1--1-1--3333--|
    
    |------------------------------|
    |------------------------------|
    |--3---3---3---3---------------|
    |--3---3---3---3-etc-1-3-5-3-1-|
    |--1---1---1---1-----1-3-5-3-1-|
    |--1---1---1---1-----1-3-5-3-1-|
    
    |---------------------------|
    |---------------------------|
    |---------------------------|
    |---------------------------|
    |-1-1----3-3----5-5--5-5----|
    |-1-1----3-3----5-5--5-5----|
    
    |----------------------|-second--|
    |----------------------|--time---|
    |--3-3---3-3--3-3--3-3-|--5555---|
    |--3-3---3-3--3-3--3-3-|--5555---|
    |--1-1---1-1--1-1--1-1-|--3333---|
    |--1-1---1-1--1-1--1-1-|--3333---|
    
    |------------------------------|
    |------------------------------|
    |--3---3---3---3---------------|
    |--3---3---3---3-etc-1-3-5-3-1-|
    |--1---1---1---1-----1-3-5-3-1-|
    |--1---1---1---1-----1-3-5-3-1-|
     

    Тональность:

    Нашли ошибку?



    Назад
    Рекомендуем посмотреть другие песни исполнителя «Lost Prophets»:

    • Комменты Fb ()
    • Комменты ВК



    Добавить в Избранное Браузера
    Сохранить здесь Очистить


    x

    0


    +
    -

    +
    -

    -

    Авторизация





    Зарегистрироваться

    M

    Дата и время

    • 18:15:45
       

    Социальные ссылки


    Наши приложения

    • Muzbank App Play Market
    • Muzbank Amazon App