MUZBANK



A Most Complete Bank Of Music Information

МУЗЫКАЛЬНО-ИНФОРМАЦИОННЫЙ БАНК

Поиск по сайту







    LLost Prophets • Ode To Summer (аккорды и текст - chords & lyrics)


    180

    Print

    Видео «Ode To Summer (Lost Prophets)»

    Видео клипы к песне подбираются автоматически сайтом youtube. Возможны некоторые несоответствия клипов песне.

    ↑ Спрятать рекламу ↑



    Download



     
    
    
    ARTIST: Lostprophets
    TITLE:  Ode To Summer
    TABBER:	Luke Charman (luke@so.org)
    ALBUM:  The Fake Sound Of Progress
    GENRE:  Nu Metal
    TUNING:	Dropped D (If you want to play it in Dropped C like LP do, play it all up two frets)
    
    ---
    
    Intro (Guitar 1):
    
    e|---------------------------|---------------------------|
    B|--------------------66-88--|--------------------66-88--|
    G|-----77-55-77-88-77--------|-----77-55-77-88-77--------|
    D|--55-----------------------|--33-----------------------|
    A|---------------------------|---------------------------|
    D|---------------------------|---------------------------|
    
    e|---------------------------|---------------------------|
    B|--------------------66-88--|---------------------------|
    G|-----77-55-77-88-77--------|-----77-55-77----77-55-77--|
    D|---------------------------|---------------------------|
    A|--66-----------------------|--33----------55-----------|
    D|---------------------------|---------------------------|
    
    Intro (Guitar 2):
    
    e|------------------------------------------|
    B|------------------------------------------|
    G|------------------------------------------|
    D|--77-77-77--55-55-55--33-33-33--00-00-00--|
    A|--77-77-77--55-55-55--33-33-33--00-00-00--|
    D|--77-77-77--55-55-55--33-33-33--00-00-00--|
    
    ---
    
    Comments? Questions? Suggestions? luke@so.org
     

    Тональность:

    Нет текста!



    Назад
    Рекомендуем посмотреть другие песни исполнителя «Lost Prophets»:

    • Комментарии Facebook ()
    • Комментарии ВКонтакте



    Добавить в Избранное Браузера
    Сохранить здесь Очистить


    x

    0


    +
    -

    +
    -

    -

    Авторизация





    Зарегистрироваться

    M

    Дата и время

    • 18:42:30
       

    Социальные ссылки


    Наши приложения

    • Muzbank App Play Market
    • Muzbank Amazon App