MUZBANK



A MOST COMPLETE BANK OF MUSIC INFORMATION

МУЗЫКАЛЬНО-ИНФОРМАЦИОННЫЙ БАНК







    LLost Prophets • Shinobi Vs Dragon Ninja (аккорды и текст - chords & lyrics)


    234

    Print

    Видео «Shinobi Vs Dragon Ninja (Lost Prophets)»

    Видео клипы к песне подбираются автоматически сайтом youtube. Возможны некоторые несоответствия клипов песне.

    ↑ Спрятать рекламу ↑






     
    
    
    Shinobi Vs. Dragon Ninja  (99% PERFECT)
    Tuning : C (CGDGBE)
    Album : Thefakesoundofprogress
    
    
    C--0~0---0~00---0~0--0~000---3~33--3~33---5~55-5~55-5~55----
    G-----87-----87----87-----87--------------------------------
    D--------------------------------3~----3~-----5~--------5~------  x1 - intro
    G---------------------------------------------7~--------7~------  Clean sound.
    B---------------------------------------------------------------
    E---------------------------------------------------------------
    
    C--0~0---0~00---0~0--0~000---3~33--3~33---5~55-5~55-5~55----
    G--0--87-----87----87-----87--------------------------------
    D--------------------------------3~----3~-----5~--------5~--  x2 - Chorus
    G---------------------------------------------7~--------7~--  Distortion On.
    B-----------------------------------------------------------
    E-----------------------------------------------------------
    
    C--00 000 00-00 000 00-33 333 33-22 222 22--
    G--00 000 00-00 000 00-33 333 33-22 222 22--
    D------------------------------------------- x2 - Verse
    G------------------------------------------- Distortion On.
    B-------------------------------------------
    E-------------------------------------------
    
    C-----------------------------------
    G-----------------------------------
    D----------------------------------- x2 - Bridge
    G----8--8--8--8--8--8----8--8--8~~-- Distortion Off.
    B--8--8--8--8--8--8--9--8--8--8-----
    E-----------------------------------
    
    C--0~0---0~00---0~0--0~000---3~33--3~33---5~55-5~55-5~55----
    G--0--87-----87----87-----87--------------------------------
    D--------------------------------3~----3~-----5~--------5~--  x2 - Chorus
    G---------------------------------------------7~--------7~--  Distortion On.
    B-----------------------------------------------------------
    E-----------------------------------------------------------
    
    C--00 000 00-00 000 00-33 333 33-22 222 22--
    G--00 000 00-00 000 00-33 333 33-22 222 22--
    D------------------------------------------- x2 - Verse
    G------------------------------------------- Distortion On.
    B-------------------------------------------
    E-------------------------------------------
    
    C-----------------------------------
    G-----------------------------------
    D----------------------------------- x2 - Bridge
    G----8--8--8--8--8--8----8--8--8~~-- Distortion Off.
    B--8--8--8--8--8--8--9--8--8--8-----
    E-----------------------------------
    
    C--0~0---0~00---0~0--0~000---3~33--3~33---5~55-5~55-5~55----
    G--0--87-----87----87-----87--------------------------------
    D--------------------------------3~----3~-----5~--------5~--  x2 - Chorus
    G---------------------------------------------7~--------7~--  Distortion On.
    B-----------------------------------------------------------
    E-----------------------------------------------------------
    
    C--8~~~~~-0~~~~~-3~~~~~-8~~~8~~~0--
    G--8~~~~~-0~~~~~-3~~~~~-8~~~8~~~0--
    D---------------------------------- x1 - Distortion On.
    G----------------------------------
    B----------------------------------
    E----------------------------------
    
    (SMALL PLECTRUM SLIDES ON TOP STRING, WITH A COOL EFFECT)
    
    C--0~0032-0~0032-0~0032-0~0032--
    G--0~032-0~0032-0~0032-0~0032---
    D------------------------------- x16
    G------------------------------- Distortion On.
    B-------------------------------
    E-------------------------------
    
    C--00 1 00 0000--
    G--00 1 00 0000--
    D---------------- x1 - Ending.
    G---------------- Distortion On.
    B----------------
    E----------------
    
    There ya go.....
     

    Тональность:

    Это должно быть в ТОП-листе! - Топ-лист композиций



    Назад
    Рекомендуем посмотреть другие песни исполнителя «Lost Prophets»:

    • Комменты Fb ()
    • Комменты ВК



    Добавить в Избранное Браузера
    Сохранить здесь Очистить


    x

    0


    +
    -

    +
    -

    -

    Авторизация





    Зарегистрироваться

    M

    Дата и время

    • 07:15:17
       

    Социальные ссылки


    Наши приложения

    • Muzbank App Play Market
    • Muzbank Amazon App