MUZBANK



A Most Complete Bank Of Music Information

МУЗЫКАЛЬНО-ИНФОРМАЦИОННЫЙ БАНК

Поиск по сайту







    LLost Prophets • Shinobi Vs Dragon Ninja (ver 8) (аккорды и текст - chords & lyrics)


    264

    Print

    Видео «Shinobi Vs Dragon Ninja (ver 8) (Lost Prophets)»

    Видео клипы к песне подбираются автоматически сайтом youtube. Возможны некоторые несоответствия клипов песне.

    ↑ Спрятать рекламу ↑



    Download


     
    
    
    song title:Shinobi vs Dragonninja
    tabbed by:Lewis Mitchell (lewismitchell234@hotmail.com)
    tuning: drop c 
    
    intro/chorus
    -----------------------------------------------
    -----------------------------------------------
    -----------------------------------------------
    -----------------------------------------------
    -----------------------------------------------
    0-0-15-14-0-0-0-15-14-0-0-15-14-0-0-0-15-14----
    
    -----------------------------------------------
    -----------------------------------------------
    ----------------------7-------7---------------- (chorus)
    ------5-------5--------------------------------   (x2)
    -----------------------------------------------
    3-3-3---3-3-3---5-5-5---5-5-5------------------
    
    verse
    --------------------------------------------------------------
    --------------------------------------------------------------
    --------------------------------------------------------------
    0-0-00-0-0-000--0-0-00-0-0-000-3-3-33-3-3-333--2-2-22-2-2-222- x2
    0-0-00-0-0-000--0-0-00-0-0-000-3-3-33-3-3-333--2-2-22-2-2-222-
    0-0-00-0-0-000--0-0-00-0-0-000-3-3-33-3-3-333--2-2-22-2-2-222-
    . . .. . . ...  . . .. . . ... . . .. . . ...  . . .. . . ...
    
    prechorus
    -------------------------------------------------------------------
    -------------------------------------------------------------------
    10----10----10----10----10----10----10----14----10----10---10------
    ---10----10----10----12----12----12--------------------------------
    ---------------------------------------10----10----10----8----8----
    ----------------------------------------------------------------10-
    
    -----------------------------------------------------------------------
    -----------------------------------------------------------------------
    10----10----10----10----10----10----14----14----14----14----14----14---
    ---10----10----10----12----12----12----14----14----14----15----15----15
    -----------------------------------------------------------------------
    -----------------------------------------------------------------------
    
    
    bridge
    -----------------------------------------------
    -----------------------------------------------
    -----------------------------------------------
    8--------------------0-------------------------
    8--------------------0-------------------------
    8--------------------0-------------------------
    
    outro
    --------|----------------------
    --------|----------------------
    --------|----------------------
    --------|--2-2-----------------
    --------|--2-2-----------------
    0-0-000-|--2-2-----------------
    repeat    . .
      x15
    w/ modulation
    
    --------------------------
    --------------------------
    --------------------------
    0-0-3-2-0-0-0-3-2--------- x8
    0-0-3-2-0-0-0-3-2---------
    0-0-3-2-0-0-0-3-2---------
    
    -------------------
    -------------------
    -------------------
    0-0-00-0-0-000-----
    0-0-00-0-0-000-----
    0-0-00-0-0-000-----
    . . .. . . ...
     

    Тональность:

    Нет текста!



    Назад
    Рекомендуем посмотреть другие песни исполнителя «Lost Prophets»:

    • Комментарии Facebook ()
    • Комментарии ВКонтакте



    Добавить в Избранное Браузера
    Сохранить здесь Очистить


    x

    0


    +
    -

    +
    -

    -

    Авторизация





    Зарегистрироваться

    M

    Дата и время

    • 02:27:23
       

    Социальные ссылки


    Наши приложения

    • Muzbank App Play Market
    • Muzbank Amazon App