MUZBANK



A Most Complete Bank Of Music Information

МУЗЫКАЛЬНО-ИНФОРМАЦИОННЫЙ БАНК

Поиск по сайту







    LLynyrd Skynyrd • Junkie (аккорды и текст - chords & lyrics)


    209

    Print

    Видео «Junkie (Lynyrd Skynyrd)»

    Видео клипы к песне подбираются автоматически сайтом youtube. Возможны некоторые несоответствия клипов песне.

    ↑ Спрятать рекламу ↑



    Download


     
    
    
    Junkie - Lynyrd Skynyrd
    
    Tabbed By : Jimbo (phuzzyboy@aol.com) 
    Tuning: Standard (EADG)
                         
      					Intro  (2x)
    G|-------------|-----------------------------------|
    D|----REST-----|----------------------0-2p0--------|
    A|-6-MEASURES--|----------------2-0-2-------2p0----|
    E|-------------|-0-0-00-3-0-3-0-----------------3--|
    
      Verse	(6x)
    G|-------7-----------|
    D|----5~---9p7-9/12--| 
    A|-7~----------------|  
    E|-------------------|
    
      Chorus	(4x)
    G|----------------------7--|
    D|--------5---5---9-7-9----|
    A|-7-7-77---7---7----------|
    E|-------------------------|
    
      Verse	(6x)
    G|-------7-----------|
    D|----5~---9p7-9/12--| 
    A|-7~----------------|  
    E|-------------------|
    
      Chorus	(4x)
    G|----------------------7--|
    D|--------5---5---9-7-9----|
    A|-7-7-77---7---7----------|
    E|-------------------------|
                   
      Solo	(10x)
    G|----------------------| 
    D|-----------5---7---5--|  
    A|-7-7-7-7-7---7---7----| 
    E|----------------------|
    
      Riff after Solo	(5x)
    G|-9-7------------------|
    D|-----9-8p7-5----------|
    A|-------------7-7------| 
    E|----------------------|
    
      Chorus Riff	(4x)
    G|----------------------7--|
    D|--------5---5---9-7-9----|
    A|-7-7-77---7---7----------|
    E|-------------------------|
    
      Verse	(6x)
    G|-------7-----------|
    D|----5~---9p7-9/12--| 
    A|-7~----------------|  
    E|-------------------|
    
      Chorus	(4x)
    G|----------------------7--|
    D|--------5---5---9-7-9----|
    A|-7-7-77---7---7----------|
    E|-------------------------|
    
      Outro	(1x)
    G|-7/9-7/9~----------|
    D|----------9-8-7-5--| 
    A|-------------------|  
    E|-------------------|
     

    Тональность:

    Нет текста!



    Назад
    Рекомендуем посмотреть другие песни исполнителя «Lynyrd Skynyrd»:

    • Комментарии Facebook ()
    • Комментарии ВКонтакте



    Добавить в Избранное Браузера
    Сохранить здесь Очистить


    x

    0


    +
    -

    +
    -

    -

    Авторизация





    Зарегистрироваться

    M

    Дата и время

    • 08:13:59
       

    Социальные ссылки


    Наши приложения

    • Muzbank App Play Market
    • Muzbank Amazon App