MUZBANK



A Most Complete Bank Of Music Information

МУЗЫКАЛЬНО-ИНФОРМАЦИОННЫЙ БАНК

Поиск по сайту







    ЛЛюбэ • Солдат (аккорды и текст - chords & lyrics)


    1209

    Print

    Видео «Солдат (Любэ)»

    Видео клипы к песне подбираются автоматически сайтом youtube. Возможны некоторые несоответствия клипов песне.

    ↑ Спрятать рекламу ↑



    Download



    Солдат
    бой (на протяжении всей песни)
    
     Am
       D    U D    D   U D  D
     --0-x--0-0-x--0-x-0-0--0-x-------
     --1-x--1-1-x--1-x-1-1--1-x-------
     --2-x--2-2-x--2-x-2-2--2-x-------
     --2-x--2-2-x--2-x-2-2--2-x-------
     --0-x--0-0-x--0-x-0-0--0-x-------
     ----x------x----x--------x-------
    
    Соло в начале
    
     e---5-5------------------------
     b-------8p5--------------------
     g------------5-7-7--5p2--0-2---
     d------------------------------
     a------------------------------
     e------------------------------
    
    fill 1
                     F
     e---------------1-
     b---------------1-
     g------------0--2-
     d--------0-2----3-
     a--0-2-3--------x-
     e---------------x-
    
    
    e|--5--5-----------|--------------------|
    H|--------8--5--5--|--------------------|
    G|-----------------|--7--7--5-----------|
    D|-----------------|-----------7--5--7--|
    
    
     Am
    Третьи сутки в пути, ветер, камни, дожди,
     Dm                  Am
    Все вперед и вперед, рота прет наша, прет
     Am
    Третьи сутки в пути, слышь, браток, не грусти
     Dm                       Am
    Ведь приказ есть приказ, знает каждый из нас.
    
     fill 1        F                  Em   Am
    Напишите письмецо, нет его дороже для бойцов,
     fill 1        F                     E
    Напишите пару слов вы девчата для своих пацанов.
    
    Припев (2 раза):
    
     Am
    И на рассвете вперед уходит рота солдат
    
    Уходит, чтоб победить и чтобы не умирать
     Dm
    Ты дай им там прикурить, товарищ старший сержант
     F                E                   Am
    Я верю в душу твою солдат, солдат, солдат
    
    Третьи сутки в пути, ветер, камни, дожди
    На рассвете нам в бой, день начнется стрельбой.
    Третьи сутки в пути, кто бы знал что нас ждет,
    Третьи сутки в пути и рассвет настает.
    
    Напишите письмецо как живет там наш родимый дом-
    Из далека-далека принесут его мне облака.
    
    Припев (2 раза) и потом...
    
     e---5-5----------------------|-7-7---------------------
     b-------8p5------------------|-----10p7----------------
     g------------5-7-7--5p2--0-2-|----------7-9-9--7p4---4-
     d----------------------------|---------------------7---
     a----------------------------|-------------------------
     e----------------------------|-------------------------
    
    
     Hm
    Падала земля, с неба падала земля
     Hm
    Разрывая крик в небе "Падла ты, война!"
     Em
    Плавилась броня, захлебнулся автомат
     F#
    Заглянул в глаза ты смерти, гвардии сержант!
    

    Тональность:

    Нет текста!



    Назад
    Рекомендуем посмотреть другие песни исполнителя «Любэ»:

    • Комментарии Facebook ()
    • Комментарии ВКонтакте



    Добавить в Избранное Браузера
    Сохранить здесь Очистить


    x

    0


    +
    -

    +
    -

    -

    Авторизация





    Зарегистрироваться

    M

    Дата и время

    • 20:36:28
       

    Социальные ссылки


    Наши приложения

    • Muzbank App Play Market
    • Muzbank Amazon App