MUZBANK



A Most Complete Bank Of Music Information

МУЗЫКАЛЬНО-ИНФОРМАЦИОННЫЙ БАНК

Поиск по сайту







    MMacabre • Mcdonalds Massacre (аккорды и текст - chords & lyrics)


    246

    Print

    Видео «Mcdonalds Massacre (Macabre)»

    Видео клипы к песне подбираются автоматически сайтом youtube. Возможны некоторые несоответствия клипов песне.

    ↑ Спрятать рекламу ↑



    Download


     
    
    
    MACABRE : mc donald massacre                   version 1.0
    from the 10 years nuclear blast
    tabbed by vincent
    
    riff 1:
    |-----------------------------------------------|
    |-----------------------------------------------|
    |-----------------------------------------------|
    |-----------------------------------------------|
    |------------------8--7-------------------3--6--|
    |-0000000000000000-6--5--0000000000000000-1--4--|
     pm--------------+      pm--------------+
    
    riff 2:
    |---------|
    |---------|
    |-----3/4-|
    |-----1/2-|
    |-4-3-----|
    |-2-1-----|
     pm-+
    
    riff 3:(not sure about the end)
    |----------------------------------------------------------------|
    |----------------------------------------------------------------|
    |----------------------------------------------------------------|
    |----------------------------------------------------------------|
    |--------------8--------------7----------------------------------|
    |-000000000000-6-000000000000-5-00000000112211112233222233443333-|
     pm----------+  pm----------+  pm------------------------------+
    
    order:
    riff1 x4
    riff2 x4
    riff1 x4
    riff2 x4
    riff1 x2
    riff3 x4
    the end
     

    Тональность:

    Нет текста!



    Назад
    Рекомендуем посмотреть другие песни исполнителя «Macabre»:

    • Комментарии Facebook ()
    • Комментарии ВКонтакте



    Добавить в Избранное Браузера
    Сохранить здесь Очистить


    x

    0


    +
    -

    +
    -

    -

    Авторизация





    Зарегистрироваться

    M

    Дата и время

    • 02:56:16
       

    Социальные ссылки


    Наши приложения

    • Muzbank App Play Market
    • Muzbank Amazon App