MUZBANK



A Most Complete Bank Of Music Information

МУЗЫКАЛЬНО-ИНФОРМАЦИОННЫЙ БАНК

Поиск по сайту







    MMachine Head • None But My Own (аккорды и текст - chords & lyrics)


    239

    Print

    Видео «None But My Own (Machine Head)»

    Видео клипы к песне подбираются автоматически сайтом youtube. Возможны некоторые несоответствия клипов песне.

    ↑ Спрятать рекламу ↑



    Download


     
    
    
    This is a great song especially on hellalive
    I cant get the second solo because i dont have a wah
    tuning B,F#,B,E,G#,C#
    
    
    intro w/chorus and flanger
    
    D-0-/4----------0-/4---------0h1/4--------0/4------0-4-----4-------4-
    A------4------------4-------------4-4--------4--------4-4---4-----4--
    D-------4-3----------4-3~----------4--3/4-----4--------4-3---4-3/4---
    G------------------------4----------------------4~~------------------
    B-----------------------5-5~-------------------5~--------------------
    E--------------------------------------------------------------------
    
    now repeat the last part then pre verse w dist
    
    D-2-2-2-2-222-222/3/1/3------2-xx-2-xx-2-xx-/3-1-/3-----
    A-2-2-2-2-222-222/3/1/3------2-xx-2-xx-2-xx-/3-1-/3-----
    D-------------------------------------------------------
    G-----------------------4.5*------------------------4.5*
    B-------------------------------------------------------
    E-------------------------------------------------------
    
    then verse w flanger
    
    D-------------------
    A-------------------
    D-4b(5)-(5)rb4-4/21- (gtr. 2)
    G-------------------
    B-------------------
    E-------------------
    
    D-0-3h4-4--------4-4-----------
    A---------4-----4---4----------
    D----------4-3-4-----4-3-4-----
    G--------------------------4.5*
    B------------------------------
    E------------------------------
    
    then chorus
    
    D2-xx-2-xx-2-xx-/3-1-/3-
    A2-xx-2-xx-2-xx-/3-1-/3-
    D-----------------------
    G-----------------------
    B-----------------------
    E-----------------------
    
    then this riff
    
    D-3-2-1-2-1-1-2-1-1h2-3333-3-2-1-2-1-1-2-1-1-2------
    A---------------------------------------------3h5---
    D------------------------------------------------5--
    G-------------------------------------------------5-
    B---------------------------------------------------
    E---------------------------------------------------
    
    solo (i cant figure out the second one w/wah)
    
    D--------------------xxxxxx---------------------------
    A--------------------xxxxxx---------------------------
    D-4p2-------4p2---------------------------------------
    G-----4-/7~-----4-/7~---------------------------------
    B--------------------------5h6p5h6p5h6p5--------------
    E----------------------------------------4h5p4h5p4h5p4
    
    D------------------------------------------------------------------
    A------------------------------------------------------------------
    D------------------------------------------------------------------
    G------------------------------------------------------------------
    B--------------------------------------------------------19h20p19~~
    E-/9h10p9h10p9h10p9---14h15p14-17p15p14-18p15p14-19p15p14----------
    
    D-------------------------------------------------------------
    A-------------------------------------------------------------
    D-------------------------------------------------------------
    G-------------------------------------------------------------
    B-19h20p19h20p19--19-19h20p19h20p19--19--------19t-/17t---19t-
    E---------------18-----------------18---19t-18t--------18t----
    
    D----------------------------
    A----------------------------
    D----------------------------
    B----------------------------
    G-12-/19-12-/17-12-/13-12/17-
    E----------------------------
    
    D-xxxxxx-1-0-xxxxxx-1-0
    A-xxxxxx-1-0-xxxxxx-1-0
    D----------------------
    G----------------------
    B----------------------
    E----------------------
    
    Key
    
    h  hammer-on
    p  pull-off
    /  slide
    x  muffle strings
    t  trem. pick
    b  bend
    rb release bend
    *  harmonic
     

    Тональность:

    Нет текста!



    Назад
    Рекомендуем посмотреть другие песни исполнителя «Machine Head»:

    • Комментарии Facebook ()
    • Комментарии ВКонтакте



    Добавить в Избранное Браузера
    Сохранить здесь Очистить


    x

    0


    +
    -

    +
    -

    -

    Авторизация





    Зарегистрироваться

    M

    Дата и время

    • 13:18:24
       

    Социальные ссылки


    Наши приложения

    • Muzbank App Play Market
    • Muzbank Amazon App