MUZBANK



A MOST COMPLETE BANK OF MUSIC INFORMATION

МУЗЫКАЛЬНО-ИНФОРМАЦИОННЫЙ БАНК







    MMachine Head • Sick Of You (аккорды и текст - chords & lyrics)


    282

    Print

    Видео «Sick Of You (Machine Head)»

    Видео клипы к песне подбираются автоматически сайтом youtube. Возможны некоторые несоответствия клипов песне.

    ↑ Спрятать рекламу ↑



    Download


     
    
    
    Sick of You
    
    Album: Supercharger
    Artist Machine Head
    Tabbed by FrAzZmAN
    Email: frazzman@optushome.com.au
    
    Tuning: (Drop B) B F# B E G# C#
    
    * - Harmonics
    
    Intro
    
    ||--------------|
    ||--------------|
    ||--------------|
    ||-3-3--2-2--1--|
    ||-3-3--2-2--1--|
    ||-3-3--2-2--1--|
    
    
    Verse
    
    ||-----------|
    ||-----------|
    ||-----------|
    ||-----------|
    ||-----------|
    ||-3-2--2-1--|
    
      (listen to the cd for timing)
    ||------------------||--------------------------------|
    ||------------------||--------------------------------|
    ||-10-/-9-/-7-/-12-=||--------------------------------|
    ||------------------||-3-3--2-2--1--10/12/10/12/10/13-|
    || -8-/-7-/-5-/-10--||-3-3--2-2--1--------------------|
    ||------------------||-3-3--2-2--1--------------------|
    
    
    Chorus
    
    ||-------------------------|
    ||-------------------------|
    ||-------------------------|
    ||-2-/-3-/-5-/-6-/-9-/-12--|
    ||-2-/-3-/-5-/-6-/-9-/-12--|
    ||-2-/-3-/-5-/-6-/-9-/-12--|
     

    Тональность:

    Нашли ошибку?



    Назад
    Рекомендуем посмотреть другие песни исполнителя «Machine Head»:

    • Комменты Fb ()
    • Комменты ВК



    Добавить в Избранное Браузера
    Сохранить здесь Очистить


    x

    0


    +
    -

    +
    -

    -

    Авторизация





    Зарегистрироваться

    M

    Дата и время

    • 01:26:33
       

    Социальные ссылки


    Наши приложения

    • Muzbank App Play Market
    • Muzbank Amazon App