MUZBANK



A Most Complete Bank Of Music Information

МУЗЫКАЛЬНО-ИНФОРМАЦИОННЫЙ БАНК

Поиск по сайту







    MMad Capsule Markets • Midi Surf (аккорды и текст - chords & lyrics)


    241

    Print

    Видео «Midi Surf (Mad Capsule Markets)»

    Видео клипы к песне подбираются автоматически сайтом youtube. Возможны некоторые несоответствия клипов песне.

    ↑ Спрятать рекламу ↑



    Download


     
    
    
    Artist: The Mad Capusule Markets
    Song: Midi Surf
    Album: OSC-DIS
    Tabbed by Tom Hackett (FoRx) forx_net@hotmail.com
    Tuning: Drop D
    
    Intro
    
    |----------------------------------------------|
    |----------------------------------------------|
    |----------------------------------------------|
    |--0-0-1-0--0-1--0-1---------------------------|x2
    |--0-0-1-0--0-1--0-1---------------------------|
    |--0-0-1-0--0-1--0-1---------------------------|
    then
    |----------------------------------------------|
    |----------------------------------------------|
    |----------------------------------------------|
    |--0-------------------------------------------|
    |--0--(let ring)-------------------------------|
    |--0-------------------------------------------|
    
    Main Riff
    
    |----------------|
    |----------------|
    |----------------|
    |--0-1-0--0-3----| x3
    |--0-1-0--0-3----|
    |--0-1-0--0-3----|
    then
    |-----------------| On   |-----|
    |-----------------| 2nd  |-----|
    |-----------------| play |-----|
    |--0-0-1-0-3-0-4--| only |--0--|
    |--0-0-1-0-3-0-4--|      |--0--|
    |--0-0-1-0-3-0-4--|      |--0--|
    
    Chorus
    
    |------------------------------------------------------|
    |------------------------------------------------------|
    |---------------5-5-5-5-5-5--7-7-7-7-7-7---------------|
    |--3-3-3-3-3-3--5-5-5-5-5-5--7-7-7-7-7-7--8-8-8-8-8-8--|
    |--3-3-3-3-3-3--3-3-3-3-3-3--5-5-5-5-5-5--8-8-8-8-8-8--|
    |--3-3-3-3-3-3----------------------------8-8-8-8-8-8--|
    
    Bridge (During bass solo)
    
    |-----------------------|    Repeat        |-----|
    |-----------------------|      as          |-----|
    |-----------------------|    needed        |-----|
    |-----------------------|                  |--0--| Let ring
    |-----------------------|     End          |--0--|
    |--0-0-0-0-0-0-0-0-0-0--|     on->         |--0--|
    pm * * * * * * * * * *
    
    Intro
    Opens
    Main Riff x4
    Chorus x2
    Main Riff x4
    Opens
    Main Riff x4
    Chorus x2
    Bridge (as needed)
    Chorus x4
    Main Riff x2
    Opens (Let both ring)
    
    Ok... Its fixed now
     

    Тональность:

    Нет текста!



    Назад
    Рекомендуем посмотреть другие песни исполнителя «Mad Capsule Markets»:

    • Комментарии Facebook ()
    • Комментарии ВКонтакте



    Добавить в Избранное Браузера
    Сохранить здесь Очистить


    x

    0


    +
    -

    +
    -

    -

    Авторизация





    Зарегистрироваться

    M

    Дата и время

    • 22:57:24
       

    Социальные ссылки


    Наши приложения

    • Muzbank App Play Market
    • Muzbank Amazon App