MUZBANK



A Most Complete Bank Of Music Information

МУЗЫКАЛЬНО-ИНФОРМАЦИОННЫЙ БАНК

Поиск по сайту







    ММакаревич Андрей • Маленькие герои (аккорды и текст - chords & lyrics)


    224

    Print

    Видео «Маленькие герои (Макаревич Андрей)»

    Видео клипы к песне подбираются автоматически сайтом youtube. Возможны некоторые несоответствия клипов песне.

    ↑ Спрятать рекламу ↑



    Download



                   Dm  
    e|--------------------|-------1------1------1------1-|
    H|--------------------|-----3------3------3------3---|
    G|--------------------|--2------2------2------2------|
    D|--------------0--0--|------------------------------|
    A|--------------------|------------------------------|
    E|--------------------|------------------------------|
    
        C                                                         
    e|-----0--------------0------0-|-------0------0------0------0-|
    H|-------1----------1------1---|-----1------1------1------1---|
    G|--0------0-------------------|--0---------------------------|
    D|------------2---------2------|---------2-------------2------|
    A|---------------3-------------|----------------3-------------|
    E|-----------------------------|------------------------------|
    
        Dm                                                          
    e|-------1------1------1------1-|-------1------1------1------1-|
    H|-------3------3------3------3-|-----3------3------3------3---|
    G|-----2------2------2------2---|--2------2------2------2------|
    D|--0-------------0-------------|------------------------------|
    A|---------0-------------0------|------------------------------|
    E|------------------------------|------------------------------|
    
        C                                                         
    e|-----0--------------0------0-|-------0------0------0------0-|       
    H|-------1----------1------1---|-----1------1------1------1---|
    G|--0------0-------------------|--0---------------------------|
    D|------------2---------2------|---------2-------------2------|
    A|---------------3-------------|----------------3-------------|
    E|-----------------------------|------------------------------|... 
    
             Dm                 C
      Мы старания утроим, построение устроим,
             Gm             Am      Dm  
      И пройдем железным строем накануне перед боем.
                                      C
      Пусть не кажется порою, что сражаться будет просто -
            Gm       F         Am         Dm
      Мы отважные герои очень маленького роста.
            Am       Dm        Am         Dm
      Мы отважные герои очень маленького роста.
    
    
          Dm                      C
      А враги - гора горою, мимо нас глядят устало.
           Gm         Am        Dm
      Они вовсе не герои, но огромные, как скалы.
                                  C
      И холодные как льдины, не воюют, а скучают.
              Gm         F            Am         Dm
      Мы бы всех их победили, только нас не замечают.
    
    
              F                     C            F
      Только нас не замечают из-за разницы в размерах,
          Gm        F           Am             Dm
      И поэтому прощают, очень маленьких, но смелых.
    

    Тональность:

    Отправитель: ИнициАтор

    Нет текста!



    Назад
    Рекомендуем посмотреть другие песни исполнителя «Макаревич Андрей»:

    • Комментарии Facebook ()
    • Комментарии ВКонтакте



    Добавить в Избранное Браузера
    Сохранить здесь Очистить


    x

    0


    +
    -

    +
    -

    -

    Авторизация





    Зарегистрироваться

    M

    Дата и время

    • 11:14:43
       

    Социальные ссылки


    Наши приложения

    • Muzbank App Play Market
    • Muzbank Amazon App