MUZBANK



A Most Complete Bank Of Music Information

МУЗЫКАЛЬНО-ИНФОРМАЦИОННЫЙ БАНК

Поиск по сайту







    MMana • Angel De Amor (аккорды и текст - chords & lyrics)


    185

    Print

    Видео «Angel De Amor (Mana)»

    Видео клипы к песне подбираются автоматически сайтом youtube. Возможны некоторые несоответствия клипов песне.

    ↑ Спрятать рекламу ↑



    Download



     
    
    
    e--------7-------5---------7---------ESTO VA TRES VECES
    B----5-------5-------5-------5-------TOCADO (play two times)
    G------------------------------------
    D------------------------------------
    A------------------------------------
    E------------------------------------
    
    e-9--------10----9------7------------SEGUIDITO VA ESTO
    B----5--5-----5-----5----------------INMEDIATO!!!!(inmediately)
    G------------------------------------
    D------------------------------------
    A------------------------------------
    E------------------------------------
    
    
    e--------7-------5---------7---------ESTO VA TRES VECES
    B----5-------5-------5-------5-------TOCADO
    G------------------------------------
    D------------------------------------
    A------------------------------------
    E------------------------------------
    
    
    e----4--------5---------7----------5----SEGUIDO ESTO
    B--------5--------5----------5---------5INMEDIATO!!!!
    G---------------------------------------
    D---------------------------------------
    A---------------------------------------
    E---------------------------------------
    
    Y LUEGO UN F#VII X2
    
    
    F#m      E                F#m     E
    Quien te corto las alas mi angel
    F#m      E           F#m        E
    quien te arranco los su 

    Тональность:

    Нет текста!



    Назад
    Рекомендуем посмотреть другие песни исполнителя «Mana»:

    • Комментарии Facebook ()
    • Комментарии ВКонтакте



    Добавить в Избранное Браузера
    Сохранить здесь Очистить


    x

    0


    +
    -

    +
    -

    -

    Авторизация





    Зарегистрироваться

    M

    Дата и время

    • 21:42:19
       

    Социальные ссылки


    Наши приложения

    • Muzbank App Play Market
    • Muzbank Amazon App