MUZBANK



A Most Complete Bank Of Music Information

МУЗЫКАЛЬНО-ИНФОРМАЦИОННЫЙ БАНК

Поиск по сайту







    MMancini Henry • Pink Panther Theme (аккорды и текст - chords & lyrics)


    354

    Print

    Видео «Pink Panther Theme (Mancini Henry)»

    Видео клипы к песне подбираются автоматически сайтом youtube. Возможны некоторые несоответствия клипов песне.

    ↑ Спрятать рекламу ↑



    Download


     
    
    
    -------------------------------------------------------------------------------
    			     The Pink Panther Theme Tune	
    -------------------------------------------------------------------------------
    Tabbed by: Kowalski	
    
    Tuning: Standard
    
    Heres a well known favourite to learn!!
    
    Bass Intro : 
    
    e|----------------------+-------|
    B|----------------------+-------|
    G|----------------------+-------| x2
    D|------------------------------|
    A|----5-6-7---------------------|
    E|--7---------7----0------------|
    
    Main Tune :
    
    e|-----------------------------------------------------------|
    B|-----------------------------------------------------------|
    G|-----------------------------------------------------------| 
    D|----------4-5-----4-5-8-9---5-8-7~------8p75--------------|
    A|----5-6-7-----6-7---------7----------7-------6-7-----------|
    E|--7--------------------------------------------------------|
    
    
    e|-----------------------------------------------------------|
    B|-----------------------------------------------------------|
    G|----9p7----------------------------------------------------|
    D|--------8p75---5h7-5h7-5h7-5h7 

    Тональность:

    Нет текста!



    Назад

    • Комментарии Facebook ()
    • Комментарии ВКонтакте



    Добавить в Избранное Браузера
    Сохранить здесь Очистить


    x

    0


    +
    -

    +
    -

    -

    Авторизация





    Зарегистрироваться

    M

    Дата и время

    • 20:33:18
       

    Социальные ссылки


    Наши приложения

    • Muzbank App Play Market
    • Muzbank Amazon App