MUZBANK



A Most Complete Bank Of Music Information

МУЗЫКАЛЬНО-ИНФОРМАЦИОННЫЙ БАНК

Поиск по сайту







    MManic Street Preachers • Dead Martyrs (аккорды и текст - chords & lyrics)


    194

    Print

    Видео «Dead Martyrs (Manic Street Preachers)»

    Видео клипы к песне подбираются автоматически сайтом youtube. Возможны некоторые несоответствия клипов песне.

    ↑ Спрятать рекламу ↑



    Download


     
    
    
    Dead Martyrs
    
    Intro
    e-------------------------------------------------|
    b-------------------------------------------------|
    G--10-10-10-10-10-10------------------------------|
    D--10-10-10-10-10-10-----11-11-11-11-11-11-11-11--| x4
    A---8--8--8--8--8--8-----11-11-11-11-11-11-11-11--|
    E-------------------------9--9--9--9--9--9--9--9--|
    
    Verse
    e-------------------------------------------------|
    b-------------------------------------------------|
    G--10-x-x-x-10-x-10-------------------------------|
    D--10-x-x-x-10-x-10--11-11-11-11-11-11-11-11------| x4
    A---8-x-x-x--8-x--8--11-11-11-11-11-11-11-11------|
    E---------------------9--9--9--9--9--9--9--9------|
    
    e-------------------------------------------------|
    b-------------------------------------------------|
    G--10-10-10-10-10-10------------------------------|
    D--10-10-10-10-10-10-----11-11-11-11-11-11-11-11--| x4
    A---8--8--8--8--8--8-----11-11-11-11-11-11-11-11--|
    E-------------------------9--9--9--9--9--9--9--9--|
    
    e-------------------------------------------------|
    b-------------------------------------------------|
    G-------5-5-5-5-5-5-------------------------------|
    D-------5-5-5-5-5-5-------6-6-6-6-6-6-6-6---------| x3
    A-------3-3-3-3-3-3-------6-6-6-6-6-6-6-6---------|
    E-------------------------4-4-4-4-4-4-4-4---------|
    
    e-------------------------------------------------|
    b-------------------------------------------------|
    G-------------------------------------------------|
    D---5-5-5-5-5-5-5-5-5-5-5-5-5-5-5-5---------------| x1
    A---5-5-5-5-5-5-5-5-5-5-5-5-5-5-5-5---------------|
    E---3-3-3-3-3-3-3-3-3-3-3-3-3-3-3-3---------------|
    
    Chorus
    
    e-------------------------------------------------| }
    b-------------------------------------------------| }
    G---8-8-8-8-8-8-8-8-------------------------------| }
    D---8-8-8-8-8-8-8-8---6-6-6-6-6-6-6-6-------------| }
    A---6-6-6-6-6-6-6-6---6-6-6-6-6-6-6-6-------------| }
    E---------------------4-4-4-4-4-4-4-4-------------| }
    						 } x2
    e-------------------------------------------------| }
    b-------------------------------------------------| }
    G-------------------------------------------------| }
    D---5-5-5-5-5-5-5-5---6-6-6-6-6-6-6-6-------------| }
    A---5-5-5-5-5-5-5-5---6-6-6-6-6-6-6-6-------------| }
    E---3-3-3-3-3-3-3-3---4-4-4-4-4-4-4-4-------------| }
    
    e-------------------------------------------------|
    b-------------------------------------------------|
    G-------------------------------------------------|
    D---3-3-3-3-3-3-3-3---6-6-6-6-6-6-6-6-------------|
    A---3-3-3-3-3-3-3-3---6-6-6-6-6-6-6-6-------------| x1
    E---1-1-1-1-1-1-1-1---4-4-4-4-4-4-4-4-------------|
    
    e-------------------------------------------------|
    b-------------------------------------------------|
    G-------------------------------------------------|
    D---4-4-4-4-4-4-4-4-4-4-4-4-4-4-4-4---------------| x1
    A---4-4-4-4-4-4-4-4-4-4-4-4-4-4-4-4---------------|
    E---6-6-6-6-6-6-6-6-6-6-6-6-6-6-6-6---------------|
    
    Bridge: Fill 1 Played Over The Intro
    Verse 2: Repeat Verse 1
    Chorus x2
    End: Bridge
    
    Fill 1
    e-------------------------------------------------|
    b-------------------------------------------------|
    G---5-5-5-5-5-5-5---------------------------------|
    D---------------------6-6-6-6-6-6-6-6-------------| x2
    A-------------------------------------------------|
    E-------------------------------------------------|
    
    Tabbed By Robert Briden. Please Send Any Corrections, Or Any Other Tabs Of Know Your Enemy To 
    Stay Beautiful.
     

    Тональность:

    Нет текста!



    Назад
    Рекомендуем посмотреть другие песни исполнителя «Manic Street Preachers»:

    • Комментарии Facebook ()
    • Комментарии ВКонтакте



    Добавить в Избранное Браузера
    Сохранить здесь Очистить


    x

    0


    +
    -

    +
    -

    -

    Авторизация





    Зарегистрироваться

    M

    Дата и время

    • 04:23:07
       

    Социальные ссылки


    Наши приложения

    • Muzbank App Play Market
    • Muzbank Amazon App