MUZBANK



A Most Complete Bank Of Music Information

МУЗЫКАЛЬНО-ИНФОРМАЦИОННЫЙ БАНК

Поиск по сайту







    MManic Street Preachers • Faster (аккорды и текст - chords & lyrics)


    211

    Print

    Видео «Faster (Manic Street Preachers)»

    Видео клипы к песне подбираются автоматически сайтом youtube. Возможны некоторые несоответствия клипов песне.

    ↑ Спрятать рекламу ↑



    Download



     
    
    
    Manic Street Preachers
    Faster 
    
    
    
    Track 9 - The Holy Bible 
    
    Intro
    
    Riff A
       A5
    G-|-----------------|
    D-|-----------------|
    A-|-0-0-0-0-0-0-0-0-|
    E-|-----------------|
    
    Riff B
         D                x2  G#5    F#5    E5      G#5   F#5  E5   
    G-||-------------------||---------------------|----------------|
    D-||-------------------||---------------------|----------------|
    A-||:-5-5-5-5-5-5-5-5-:||---------------------|----------------|
    E-||-------------------||-4-4-4--2-2-2--0-0-0-|-4-4-4--2---0---|
    
    Riff C
         D                x2  E                x2
    G-||-------------------||-------------------||
    D-||-------------------||-------------------||
    A-||:-5-5-5-5-5-5-5-5-:||:-7-7-7-7-7-7-7-7-:||
    E-||-------------------||-------------------||
    
    Riff D
        G5        F#5       E5      D5    C#5  B5                      x2
    G-|-12-12-12--11-11-11--9-9-9-|-7-7-7--6---4---||-------------------||-
    D-|---------------------------|----------------||-------------------||-
    A-|---------------------------|----------------||:-2-2-2-2-2-2-2-2-:||-
    E-|---------------------------|----------------||-------------------||-
         E                x2
    G-||-------------------||
    D-||-------------------||
    A-||:-2-2-2-2-2-2-2-2-:||
    E-||-------------------||
    
    Intro
    
     Riff A x8
    
    Verse 1
    
     Riff A x16
    
    Pre-Chorus
    
     Riff B x3
     Riff C
    
    Chorus
    
     Riff A x4
     Riff D
    
    Verse 2: Repeat verse 1
    
    Pre-chorus: Repeat Chorus
    
    Chorus: Repeat Chorus
    
    Solo
    
     Riff A x8
    
    Outro 
    
     Riff A x 12
                           x2
    G-||---------|----------||--------|
    D-||---------|----------||--------|
    A-||:-0---0--|-0---0-0-:||-0------|
    E-||---------|----------||--------|
    
    
    transcribed by Kevin Brown And Chris Stevens
     

    Тональность:

    Нет текста!



    Назад
    Рекомендуем посмотреть другие песни исполнителя «Manic Street Preachers»:

    • Комментарии Facebook ()
    • Комментарии ВКонтакте



    Добавить в Избранное Браузера
    Сохранить здесь Очистить


    x

    0


    +
    -

    +
    -

    -

    Авторизация





    Зарегистрироваться

    M

    Дата и время

    • 07:05:35
       

    Социальные ссылки


    Наши приложения

    • Muzbank App Play Market
    • Muzbank Amazon App