MUZBANK



A Most Complete Bank Of Music Information

МУЗЫКАЛЬНО-ИНФОРМАЦИОННЫЙ БАНК

Поиск по сайту







    MManic Street Preachers • Faster (аккорды и текст - chords & lyrics)


    189

    Print

    Видео «Faster (Manic Street Preachers)»

    Видео клипы к песне подбираются автоматически сайтом youtube. Возможны некоторые несоответствия клипов песне.

    ↑ Спрятать рекламу ↑



    Download



     
    
    
    tuning low to high - e, a, d, g, b, e
    
    intro
    guitar 1 - use all upstrokes
    |-16------16------16------16-----------|
    |--------------------------------------|
    |-13-14---13-14---13-14---13-14-16-----|
    |----------------------------------14--| x1
    |--------------------------------------|
    |--------------------------------------|
    
    guitar 2
    |---|
    |---|
    |-2-|
    |-2-| played repeatedly over guitar 1
    |-0-|
    |---|
    
    verse - 1st part - x5
    guitar 1
    |---------------------------------------------------------------|
    |---------------------------------------------------------------|
    |---------------------------------------------------------------|
    |-6-------------6-----------------6-------------6---------------|
    |---------------------------------------------------------------|
    |---5-x-5-x-x-5---5-5-x-5-5-x-x-5---5-x-5-x-x-5---5-5-5-5-6-7-0-|
    
    guitar 2
    |---|
    |---|
    |-2-|
    |-2-|  played repeatedly palm muted
    |-0-|
    |---|
    
    verse - 2nd part 
            guitar 1
    |--------------------------------------------------|
    |--------------------------------------------------|
    |-/13~~~~~~----------------------------------------|
    |--------------------------------------------------|
    |--------------------------/11-9-7-/11-9-7-----| x3
    |--------------------------------------------------|
    |
    |       guitar 2                                    
    |---------------------------------------------------|
    |---------------------------------------------------|
    |-7-7-7-7-7-7-7-7-7-7-7-7-7-13--11-9--7---6--4--7---|
    |-7-7-7-7-7-7-7-7-7-7-7-7-7-13--11-9--7---6--4--7---|
    |-5-5-5-5-5-5-5-5-5-5-5-5-5-11--9--7--5---4--2--5---| x3
    |---------------------------------------------------|
    
    both guitars
    |---------------------------------------------------|
    |---------------------------------------------------|
    |-7-7-7-7-7-7-7-7-7-7-7-7-7-9-9-9-9-9-9-9-9-9-9-9-9-|
    |-7-7-7-7-7-7-7-7-7-7-7-7-7-9-9-9-9-9-9-9-9-9-9-9-9-|
    |-5-5-5-5-5-5-5-5-5-5-5-5-5-7-7-7-7-7-7-7-7-7-7-7-7-| x1 
    |---------------------------------------------------|
    
    chorus - both guitars - all x2
    |-------------------------------------------------|
    |-------------------------------------------------|
    |-13-11-11-13-11-11-13-11-11-13-11-11-13-11-11-11-|
    |-11-11-11-11-11-11-11-11-11-11-11-11-11-11-11-11-| x2
    |-------------------------------------------------|
    |-------------------------------------------------|
    
    |---------------------------------------|
    |---------------------------------------|
    |-13-13-13-11-11-11-9-9-9-7-7-7-6-6-4-4-|
    |---------------------------------------| x1
    |-11-11-11-9--9--9--7-7-7-5-5-5-4-4-2-2-|
    |---------------------------------------|
    
    |-----------------------------------------------------------------|
    |-----------------------------------------------------------------|
    |-4-4-4-4-4-4-4-4-4-4-4-4-4-4-4-4---------------------------------|
    |-4-4-4-4-4-4-4-4-4-4-4-4-4-4-4-4-2-2-2-2-2-2-2-2-2-2-2-2-2-2-2-2-|
    |-2-2-2-2-2-2-2-2-2-2-2-2-2-2-2-2-2-2-2-2-2-2-2-2-2-2-2-2-2-2-2-2-| x1
    |---------------------------------0-0-0-0-0-0-0-0-0-0-0-0-0-0-0-0-|
    
    break x1
    guitar 1
    |-16-16-12-16-16-16----------16---------------16---------16-------------|
    |-16-16-12-16-16--------------------------------------------------------|
    |-15-15-12-15-15-13-14-------13--14-----------13--14-----13--14--16-----|
    |-12-12-12-12-12-----------------------------------------------------14-|
    |-----------------------------------------------------------------------|
    |-----------------------------------------------------------------------|
    
    guitar 2
    |---------------------------------------------------------------------------|
    |---------------------------------------------------------------------------|
    |-2-2---2-2-----------------------------------------------------------------|
    |-2-2---2-2---6-------------6-----------------6-------------6---------------|
    |-0-0-0-0-0-----------------------------------------------------------------|
    |---------------5-x-5-x-x-5---5-5-x-5-5-x-x-5---5-x-5-x-x-5---5-5-5-5-6-7-0-|
    
    solo
    |--------------------------------------------------|
    |--------------------------------------------------|
    |--------------------------------------------------|
    |----------------7-8-------5-6-------7-8-------5-6-|
    |-/19~~~--7h8h9-----5h6h7-----7h8h9-----5h6h7-----|
    |--------------------------------------------------|
    
    |--------------------------------------------------------------|
    |--------9h11-----7h9------9h11-----7h9------9h11-----7h9------|
    |-/-9h11------7h9-----9h11------7h9-----9h11------7h9-----9~~~-|
    |--------------------------------------------------------------|
    |--------------------------------------------------------------|
    |--------------------------------------------------------------|
    
    |-------------------/12----------|
    |-----14-12-------------15-14-12-|
    |-----------14-11-13-------------|
    |-/14----------------------------|
    |--------------------------------|
    |--------------------------------|
    
    |-------------------------------------------------------|
    |----------------------------------12-13-14-14(16)-(14)-|
    |-14-13-12----------------12-13-14----------------------|
    |----------14-13-12-13-14-------------------------------|
    |-------------------------------------------------------|
    |-------------------------------------------------------|
    
    backing for solo
    |---|
    |---|
    |-2-|
    |-2-|  repeatedly
    |-0-|
    |---|
    
    outro
    |---------------------------------------------------------------|
    |---------------------------------------------------------------|
    |---------------------------------------------------------------|
    |-6-------------6-----------------6-------------6---------------|
    |---------------------------------------------------------------|
    |---5-x-5-x-x-5---5-5-x-5-5-x-x-5---5-x-5-x-x-5---5-5-5-5-6-7-0-|
    
    play order:
    intro
    verse
    chorus
    break
    verse
    chorus
    solo
    outro
    
    x = mute
    h = hammer on
    notes in() = bend previously played note to this point
     

    Тональность:

    Нет текста!



    Назад
    Рекомендуем посмотреть другие песни исполнителя «Manic Street Preachers»:

    • Комментарии Facebook ()
    • Комментарии ВКонтакте



    Добавить в Избранное Браузера
    Сохранить здесь Очистить


    x

    0


    +
    -

    +
    -

    -

    Авторизация





    Зарегистрироваться

    M

    Дата и время

    • 09:01:47
       

    Социальные ссылки


    Наши приложения

    • Muzbank App Play Market
    • Muzbank Amazon App