MUZBANK



A Most Complete Bank Of Music Information

МУЗЫКАЛЬНО-ИНФОРМАЦИОННЫЙ БАНК

Поиск по сайту







    MManic Street Preachers • Stay Beautiful (аккорды и текст - chords & lyrics)


    175

    Print

    Видео «Stay Beautiful (Manic Street Preachers)»

    Видео клипы к песне подбираются автоматически сайтом youtube. Возможны некоторые несоответствия клипов песне.

    ↑ Спрятать рекламу ↑



    Download



     
    
    
    tuning low to high - e,a,d,g,b,e
    
    
    |-----------------------|
    |-----------------------|
    |-7-7-------------------|
    |-7-7-x-5/75-5--5-5--5-| x4
    |-5-5-x-5/75-5--5-5--5-|
    |-----x-3/53-3--3-3--3-|
    
    |-------------------------------------------------|
    |-------------------------------------------------|
    |-7-7-7-7-7-7-7-7-7-7-7-7-7-7-7-7-7-7-7-7-7-7-7-7-|
    |-7-7-7-7-7-7-7-7-7-7-7-7-7-7-7-7-7-7-7-7-7-7-7-7-|
    |-5-5-5-5-5-5-5-5-5-5-5-5-5-5-5-5-5-5-5-5-5-5-5-5-|
    |-------------------------------------------------|
    |
    |
    |-------------------------------------------------|
    |---2-3-------8---8---2-3-----------2-3-------8---|
    |---2-2-------7---7---2-2-----------2-3-------7---|
    |-------------------------------------------------|
    |-------------------------------------------------|
    |-------------------------------------------------|
    
    |-------------------------------------------------|
    |-------------------------------------------------|
    |-7-7-7-7-7-7-7-7-7-7-7-7-7-7-7-7-7-7-7-7-7-7-7-7-|
    |-7-7-7-7-7-7-7-7-7-7-7-7-7-7-7-7-7-7-7-7-7-7-7-7-|
    |-5-5-5-5-5-5-5-5-5-5-5-5-5-5-5-5-5-5-5-5-5-5-5-5-|
    |-------------------------------------------------|
    |
    |
    |-------------------------------------------------|
    |-8---2-3-----------2-3-------8---8---2-3---------|
    |-7---2-2-----------2-2-------7---7---2-2---------|
    |-------------------------------------------------|
    |-------------------------------------------------|
    |-------------------------------------------------|
    
    |---------------------------------|
    |-2---------------2---------------|
    |-2---------------2---------------|
    |-2---------------2---------------|
    |-0---------------0---------------|
    |---------------------------------|
    |
    |
    |---------------------------------|
    |-------2---------------2---------|
    |-----2---------------2-----------|
    |---2---------------2-------------|
    |-0---------------0---------------|
    |---------------------------------|
    
    |-----------------------|
    |-----------------------|
    |-7-7-------------------|
    |-7-7-x-5/75-5--5-5--5-| x2
    |-5-5-x-5/75-5--5-5--5-|
    |-----x-3/53-3--3-3--3-|
    
    |-------------------------------------------------|
    |-------------------------------------------------|
    |-7-7-7-7-7-7-7-7-7-7-7-7-7-7-7-7-7-7-7-7-7-7-7-7-|
    |-7-7-7-7-7-7-7-7-7-7-7-7-7-7-7-7-7-7-7-7-7-7-7-7-|
    |-5-5-5-5-5-5-5-5-5-5-5-5-5-5-5-5-5-5-5-5-5-5-5-5-|
    |-------------------------------------------------|
    |
    |
    |-------------------------------------------------|
    |---2-3-------8---8---2-3-----------2-3-------8---|
    |---2-2-------7---7---2-2-----------2-3-------7---|
    |-------------------------------------------------|
    |-------------------------------------------------|
    |-------------------------------------------------|
    
    |-------------------------------------------------|
    |-------------------------------------------------|
    |-7-7-7-7-7-7-7-7-7-7-7-7-7-7-7-7-7-7-7-7-7-7-7-7-|
    |-7-7-7-7-7-7-7-7-7-7-7-7-7-7-7-7-7-7-7-7-7-7-7-7-|
    |-5-5-5-5-5-5-5-5-5-5-5-5-5-5-5-5-5-5-5-5-5-5-5-5-|
    |-------------------------------------------------|
    |
    |
    |-------------------------------------------------|
    |-8---2-3-----------2-3-------8---8---2-3---------|
    |-7---2-2-----------2-2-------7---7---2-2---------|
    |-------------------------------------------------|
    |-------------------------------------------------|
    |-------------------------------------------------|
    
    |-0---------------0---------------|
    |-2---------------2---------------|
    |-2---------------2---------------|
    |-2---------------2---------------|
    |-0---------------0---------------|
    |---------------------------------|
    |
    |
    |---------------------------------|
    |-------2---------------2---------|
    |-----2---------------2-----------|
    |---2---------------2-------------|
    |-0---------------0---------------|
    |---------------------------------|
    
    |-2-------2-------2-------2-------2-------2-------2-------2-------|
    |---3-------3-------3-------3-------3-------3-------3-------3-----|
    |-----2-------2-------2-------2-------2-------2-------2-------2---|
    |-------0-------0-------0-------0-------0-------0-------0-------0-|
    |-----------------------------------------------------------------|
    |-----------------------------------------------------------------|
    
    |-2-------2-------2-----------------------------------------------|
    |---3-------3-------3-----12(13)----------------------------------|
    |-----2-------2-------2---12(14)----2-----------------------------|
    |-------0-------0-------0-----------2-------------2---------------|
    |-----------------------------------0-------0-----0-------0-------|
    |--------------------------------12--3-2-3---3-2---3-2-3---3-2-0-|
    
    |-2-----------2-----------2-------2-----------2-----------2-------|
    |---3-------3---3-------3---3-------3-------3---3-------3---3-----|
    |-----2---2-------2---2-------2-------2---2-------2---2-------3---|
    |-------0-----------0-----------0-------0-----------0-----------0-|
    |-----------------------------------------------------------------|
    |-----------------------------------------------------------------|
    
    |-2-----------2---------------------------------------------------|
    |---3-------3---3---------12(13)----------------------------------|
    |-----2---2-------2---0---12(14)----2-----------------------------|
    |-------0-----------0---------------2-------------2---------------|
    |-----------------------------------0-------0-----0-------0-------|
    |--------------------------------12--3-2-3---3-2---3-2-3---3-2-0-|
    
    |-----------------------|
    |-----------------------|
    |-7-7-------------------|
    |-7-7-x-5/75-5--5-5--5-| x2
    |-5-5-x-5/75-5--5-5--5-|
    |-----x-3/53-3--3-3--3-|
    
    |-------------------------------------------------|
    |-------------------------------------------------|
    |-7-7-7-7-7-7-7-7-7-7-7-7-7-7-7-7-7-7-7-7-7-7-7-7-|
    |-7-7-7-7-7-7-7-7-7-7-7-7-7-7-7-7-7-7-7-7-7-7-7-7-|
    |-5-5-5-5-5-5-5-5-5-5-5-5-5-5-5-5-5-5-5-5-5-5-5-5-|
    |-------------------------------------------------|
    |
    |
    |-------------------------------------------------|
    |---2-3-------8---8---2-3-----------2-3-------8---|
    |---2-2-------7---7---2-2-----------2-3-------7---|
    |-------------------------------------------------|
    |-------------------------------------------------|
    |-------------------------------------------------|
    
    |-------------------------------------------------|
    |-------------------------------------------------|
    |-7-7-7-7-7-7-7-7-7-7-7-7-7-7-7-7-7-7-7-7-7-7-7-7-|
    |-7-7-7-7-7-7-7-7-7-7-7-7-7-7-7-7-7-7-7-7-7-7-7-7-|
    |-5-5-5-5-5-5-5-5-5-5-5-5-5-5-5-5-5-5-5-5-5-5-5-5-|
    |-------------------------------------------------|
    |
    |
    |-------------------------------------------------|
    |-8---2-3-----------2-3-------8---8---2-3---------|
    |-7---2-2-----------2-2-------7---7---2-2---------|
    |-------------------------------------------------|
    |-------------------------------------------------|
    |-------------------------------------------------|
    
    |---------------------------------|
    |-2---------------2---------------|
    |-2---------------2---------------|
    |-2---------------2---------------|
    |-0---------------0---------------|
    |---------------------------------|
    |
    |
    |---------------------------------|
    |-------2---------------2---------|
    |-----2---------------2-----------|
    |---2---------------2-------------|
    |-0---------------0---------------|
    |---------------------------------|
    
    |-----------------------|
    |-----------------------|
    |-7-7-------------------|
    |-7-7-x-5/75-5--5-5--5-| x2
    |-5-5-x-5/75-5--5-5--5-|
    |-----x-3/53-3--3-3--3-|
    
    |-------------------------------------------------|
    |-------------------------------------------------|
    |-7-7-7-7-7-7-7-7-7-7-7-7-7-7-7-7-7-7-7-7-7-7-7-7-|
    |-7-7-7-7-7-7-7-7-7-7-7-7-7-7-7-7-7-7-7-7-7-7-7-7-|
    |-5-5-5-5-5-5-5-5-5-5-5-5-5-5-5-5-5-5-5-5-5-5-5-5-|
    |-------------------------------------------------|
    |
    |
    |-------------------------------------------------|
    |---2-3-------8---8---2-3-----------2-3-------8---|
    |---2-2-------7---7---2-2-----------2-3-------7---|
    |-------------------------------------------------|
    |-------------------------------------------------|
    |-------------------------------------------------|
    
    |-------------------------------------------------|
    |-------------------------------------------------|
    |-7-7-7-7-7-7-7-7-7-7-7-7-7-7-7-7-7-7-7-7-7-7-7-7-|
    |-7-7-7-7-7-7-7-7-7-7-7-7-7-7-7-7-7-7-7-7-7-7-7-7-|
    |-5-5-5-5-5-5-5-5-5-5-5-5-5-5-5-5-5-5-5-5-5-5-5-5-|
    |-------------------------------------------------|
    |
    |
    |-------------------------------------------------|
    |-8---2-3-----------2-3-------8---8---2-3---------|
    |-7---2-2-----------2-2-------7---7---2-2---------|
    |-------------------------------------------------|
    |-------------------------------------------------|
    |-------------------------------------------------|
    
    |-0---------------0---------------|
    |-2---------------2---------------|
    |-2---------------2---------------|
    |-2---------------2---------------|
    |-0---------------0---------------|
    |---------------------------------|
    |
    |
    |---------------------------------|
    |-------2---------------2---------|
    |-----2---------------2-----------|
    |---2---------------2-------------|
    |-0---------------0---------------|
    |---------------------------------|
    
    |-2-------2-------2-------2-------2-------2-------2-------2-------|
    |---3-------3-------3-------3-------3-------3-------3-------3-----|
    |-----2-------2-------2-------2-------2-------2-------2-------2---|
    |-------0-------0-------0-------0-------0-------0-------0-------0-|
    |-----------------------------------------------------------------|
    |-----------------------------------------------------------------|
    
    |-2-------2-------2-----------------------------------------------|
    |---3-------3-------3-----12(13)----------------------------------|
    |-----2-------2-------2---12(14)----2-----------------------------|
    |-------0-------0-------0-----------2-------------2---------------|
    |-----------------------------------0-------0-----0-------0-------|
    |--------------------------------12--3-2-3---3-2---3-2-3---3-2-0-|
    
    |-2-----------2-----------2-------2-----------2-----------2-------|
    |---3-------3---3-------3---3-------3-------3---3-------3---3-----|
    |-----2---2-------2---2-------2-------2---2-------2---2-------3---|
    |-------0-----------0-----------0-------0-----------0-----------0-|
    |-----------------------------------------------------------------|
    |-----------------------------------------------------------------|
    
    |-2-----------2---------------------------------------------------|
    |---3-------3---3---------12(13)----------------------------------|
    |-----2---2-------2---0---12(14)----2-----------------------------|
    |-------0-----------0---------------2-------------2---------------|
    |-----------------------------------0-------0-----0-------0-------|
    |--------------------------------12--3-2-3---3-2---3-2-3---3-2-0-|
    
    to lazy to do solos yet but will add them soon
     

    Тональность:

    Нет текста!



    Назад
    Рекомендуем посмотреть другие песни исполнителя «Manic Street Preachers»:

    • Комментарии Facebook ()
    • Комментарии ВКонтакте



    Добавить в Избранное Браузера
    Сохранить здесь Очистить


    x

    0


    +
    -

    +
    -

    -

    Авторизация





    Зарегистрироваться

    M

    Дата и время

    • 03:12:16
       

    Социальные ссылки


    Наши приложения

    • Muzbank App Play Market
    • Muzbank Amazon App