MUZBANK



A Most Complete Bank Of Music Information

МУЗЫКАЛЬНО-ИНФОРМАЦИОННЫЙ БАНК

Поиск по сайту







    MManowar • Army Of The Immortals (аккорды и текст - chords & lyrics)


    189

    Print

    Видео «Army Of The Immortals (Manowar)»

    Видео клипы к песне подбираются автоматически сайтом youtube. Возможны некоторые несоответствия клипов песне.

    ↑ Спрятать рекламу ↑



    Download


     
    
    
    Army Of The Immortals
                            ---------------------
    
    By:         Manowar
    Album:      Hail To England
    Released in the Manowar-Fanzine from the Spanish Metal Warriors (April 1995)
    Typed in:   Mark Guttenbrunner (e9325367@stud1.tuwien.ac.at)
    
    Ignore the timing !
    
    
    Riff A:
    -------
    
     e ------------------------------------------------------------- |
     B ------------------------------------------------------------- |
     G --2---------------------------------------------------------- |
     D --2-----------------------5---4---------------------6-6-7-9-- |
     A --0-0-0-0-0-0-0-0-0-0-0-0-3---2---3-----------------7-7-7-7-- |
     E ----------------------------------1-1-1-1-1-1-1-1-0---------- |
    
    Riff B:
    -------
    
     e ----------------------------------------------------------- |
     B ----------------------------------------------------------- |
     G --2-------------------------------------------------------- |
     D --2-----------------------5---4---------------------------- |
     A --0-0-0-0-0-0-0-0-0-0-0-0-3---2---3--------2--------------- |
     E ----------------------------------1--------0--------------- |
    
    Riff C:
    -------
    
     e ----------------------------------------------------------- |
     B ----------------------------------------------------------- |
     G ----------------------------------------------------------- |
     D ----7-------------2---------------------------2------------ |
     A ----5-5-5-5-5-5-5-0---5---3---2---------------0---5---3---- |
     E ----------------------3---1---0-0-0-0-0-0-0-0-----3---1---- |
    
     e ----------------------------------------------------------- |
     B ----------------------------------------------------------- |
     G ----------------------------------------------1---2---4---- |
     D ----7-------------2---------------------------------------- |
     A ----5-5-5-5-5-5-5-0---5---3---2---------------------------- |
     E ----------------------3---1---0-0-0-0-0-0-0-0-------------- |
    
     e ----------------------------------------------------------- |
     B -----------------------------5-3--------------------------- |
     G -----------2-4-5-4-2---2-4-5---2--------------------------- |
     D -2-----2-------------5-------2-0------5----5--------------- |
     A -0--0--0---0-2-3-2-0---0-2-3----------3----2----5---------- |
     E ---------------------3--------------------------3---------- |
    
    
    Solo 1:
    -------
    
    -----------------------------------------------------------------------------
    -10--10-13-15-10-13-15-10-13-15-10-13-15-10-13-15-10-15-17-15-17-13-15-13----
    --------------------------------------------------------------------------14- 
    -----------------------------------------------------------------------------
    -----------------------------------------------------------------------------
    -----------------------------------------------------------------------------
    
    --------------------------------------15--12-15-12----12----12---------------
    ---------------------------------------------------15----15----15-13-13-15---
    -12-14-12-14-12-14-12-14---12-13---------------------------------------------
    ---------------------------------14------------------------------------------
    -----------------------------------------------------------------------------
    -----------------------------------------------------------------------------
    
    -----------------------------------------------------------------------------
    -13-15-12-14-12-14-13-----10-8---10-8---10-8---10-8---10-8-10-8-10-8-10-8-10-
    ----------------------14-------9------9------9------9------------------------
    -----------------------------------------------------------------------------
    -----------------------------------------------------------------------------
    -----------------------------------------------------------------------------
    
    -----------------------------------------------------------------------------
    -8-10-8--8-9-----------------------------------------------------------------
    -------------9---------------------------------------------------------------
    -----------------------------------------------------------------------------
    -----------------------------------------------------------------------------
    -----------------------------------------------------------------------------
    
    
    Solo 2:
    -------
    
    -----------------------------------------------------------------------------
    -----------------------------------------------------------------------------
    -----------------------------------------------------------9-10-9----9-10-9--
    -7-7-7-7-7-7-7-7-7-7-7-----7-7-7-7-7-7-7-7-7---10-14-10-10--------10--------10
    -----------------------------------------------------------------------------
    -----------------------------------------------------------------------------
    
    -----------------------------------------------------------------------------
    ------------------------------------------------------------10-13-------10-13
    -9-10-9----9-10-9-10-9-12-10-9-10-9-10-9-10-9-12-14-12-9-12--------9-12------
    --------10-------------------------------------------------------------------
    -----------------------------------------------------------------------------
    -----------------------------------------------------------------------------
    
    ---------------------------------------------------------------------10------
    ------10-13-10---------10-13-10---------10---------10-13-10-13-10-13---------
    -9-12----------12-9-12----------12-9-12----12-9-12---------------------------
    -----------------------------------------------------------------------------
    -----------------------------------------------------------------------------
    -----------------------------------------------------------------------------
    
    -12-12-13-12-15-12-13-12-13-12-----------------------------------------------
    -------------------------------15---13-15-12-13-12-10-5-6-5-8-6--5-5-5-5-----
    -----------------------------------------------------------------------------
    -----------------------------------------------------------------------------
    -----------------------------------------------------------------------------
    -----------------------------------------------------------------------------
    
    -12-0-5-8-12-0-5-8-12-0-5-8-12-0-5-8-12-0-5-8-12-0-5-8-12-0-5-8-12-0-5-8-----
    -----------------------------------------------------------------------------
    -----------------------------------------------------------------------------
    -----------------------------------------------------------------------------
    -----------------------------------------------------------------------------
    -----------------------------------------------------------------------------
    
    -12-0-5-8-12-0-5-8-12-0-5-8-12-0-5-8-12-0-5-8-12-0-5-8-12-0-5-8-12-0-5-8-----
    -----------------------------------------------------------------------------
    -----------------------------------------------------------------------------
    -----------------------------------------------------------------------------
    -----------------------------------------------------------------------------
    -----------------------------------------------------------------------------
    
    -13-0-5-8-13-0-5-8-13-0-5-8-13-0-5-8-13-0-5-8-13-0-5-8-13-0-5-8-13-0-5-8-----
    -----------------------------------------------------------------------------
    -----------------------------------------------------------------------------
    -----------------------------------------------------------------------------
    -----------------------------------------------------------------------------
    -----------------------------------------------------------------------------
    
    -12-0-4-7-12-0-4-7-12-0-4-7-12-0-4-7-12-0-4-7-12-0-4-7-12-0-4-7-12-0-4-7--20-
    -----------------------------------------------------------------------------
    -----------------------------------------------------------------------------
    -----------------------------------------------------------------------------
    -----------------------------------------------------------------------------
    -----------------------------------------------------------------------------
    
    
    And  

    Тональность:

    Нет текста!



    Назад
    Рекомендуем посмотреть другие песни исполнителя «Manowar»:

    • Комментарии Facebook ()
    • Комментарии ВКонтакте



    Добавить в Избранное Браузера
    Сохранить здесь Очистить


    x

    0


    +
    -

    +
    -

    -

    Авторизация





    Зарегистрироваться

    M

    Дата и время

    • 09:53:08
       

    Социальные ссылки


    Наши приложения

    • Muzbank App Play Market
    • Muzbank Amazon App