MUZBANK



A Most Complete Bank Of Music Information

МУЗЫКАЛЬНО-ИНФОРМАЦИОННЫЙ БАНК

Поиск по сайту







    MMarduk • Baptism By Fire (аккорды и текст - chords & lyrics)


    266

    Print

    Видео «Baptism By Fire (Marduk)»

    Видео клипы к песне подбираются автоматически сайтом youtube. Возможны некоторые несоответствия клипов песне.

    ↑ Спрятать рекламу ↑



    Download


     
    
    
    Marduk-Baptism By Fire
    from the album Panzer Division Marduk
    transcribed by Karl Westin
    Send Questions and Comments to max_c84@hotmail.com
    
    Riff A1:
    -----------
    -----------
    -----------
    -----------
    -3---4-2-4-
    -1---2-0-2-
    (play 4x)
    
    Riff A2:
    -----------
    -----------
    -----------
    -----------
    -8---9-6-9-
    -6---7-4-7-
    (play 2x)
    (play Riff A1 4x)
    (play Riff A2 2x)
    
    Riff B:
    t  t  t t  t  t  t t t t t  t  t  t t  t t  t t  t t t t
    -/--/--/-/--/--/--/-/-/-/-/--/--/--/-/---/-/--/-/--/-/-/-/-
    -/--/--/-/--/--/--/-/-/-/-/--/--/--/-/---/-/--/-/--/-/-/-/-
    -9--8--6-8--9--8--6-8-9-8-6--9--8--6-8---8-9--9-8--6-8-9-8-
    -/--/--/-/--/--/--/-/-/-/-/--/--/--/-/---/-/--/-/--/-/-/-/-
    -/--/--/-/--/--/--/-/-/-/-/--/--/--/-/---/-/--/-/--/-/-/-/-
    -/--/--/-/--/--/--/-/-/-/-/--/--/--/-/---/-/--/-/--/-/-/-/-
    
    Riff C:
    --------------------
    --------------------
    --------------------
    -6-6-6-6-7-7--7-6-4-
    -6-6-6-6-7-7--7-6-4-
    -4-4-4-4-5-5--------
    (play 4x)
    (play Riff A1 4x)
    (play Riff A2 2x)
    (play Riff A1 4x)
    (play Riff A2 2x)
    (play Riff B 1x)
    (play Riff C 8x)
    
    Riff D:
    ----/------/---/-
    ----/------/---/-
    ----12-----12--9-
    -6--/---6--/---/-
    -6--/---6--/---/-
    -4--/---4--/---/-
    (play 2x)
    
    Riff E:            3x
    -------------------||---------
    ------------------o||---------
    -8--------------8--||-9-8-6-9-
    -8--------6-8-9----||---------
    -6--6-8-9---------o||---------
    -------------------||---------
    The D#hord is played by guitar 2.)
    (play 6x)
    (play Riff D 2x)
    (play Riff E 4x)
    (play Riff B 1x)
    (play Riff C 6x)
    end song on:
    ---
    ---
    ---
    -6-
    -6-
    -4-
    
    Note:
    t  =Tremolo picking
    -/-
    -/-
    -/-
    -/-
    -9-
    -/-
    
    -12- = fret no 12
    -1-2-= first fret no 1 then fret no 2
     

    Тональность:

    Нет текста!



    Назад
    Рекомендуем посмотреть другие песни исполнителя «Marduk»:

    • Комментарии Facebook ()
    • Комментарии ВКонтакте



    Добавить в Избранное Браузера
    Сохранить здесь Очистить


    x

    0


    +
    -

    +
    -

    -

    Авторизация





    Зарегистрироваться

    M

    Дата и время

    • 03:20:11
       

    Социальные ссылки


    Наши приложения

    • Muzbank App Play Market
    • Muzbank Amazon App