MUZBANK



A Most Complete Bank Of Music Information

МУЗЫКАЛЬНО-ИНФОРМАЦИОННЫЙ БАНК

Поиск по сайту







    MMarduk • Woman Of Dark Desires (аккорды и текст - chords & lyrics)


    232

    Print

    Видео «Woman Of Dark Desires (Marduk)»

    Видео клипы к песне подбираются автоматически сайтом youtube. Возможны некоторые несоответствия клипов песне.

    ↑ Спрятать рекламу ↑



    Download


     
    
    
    Marduk - Woman of dark desires(tribute to bathory)
    Tabbed By: TrAnSgHoTiC-|-VapI|Re^^(vocal/guitar  of infernal)
    EMail: transghotic_vampire@hotmail.com
    
    
    Tunning - E a d g b e
    
    Intro/Riff 1 
    
    e|------------------------------||
    b|------------------------------||
    g|------------------------------||x 24
    d|22222----3/43----------------||
    a|22222----3/43----------------||
    E|00000----3/43----------------||
     
    Interlude
    
    e|-------------------------------||
    b|-------------------------------||
    g|-------------------------------||
    d|6----3-----2-------------------||
    a|6----3-----2-------------------||x 1
    E|8----5-----4-------------------||
     
    Chorus
    
    e|-------------------------------||
    b|-------------------------------||
    g|-------------------------------||
    d|-2----5----5---4-----7/87/87-||x1
    a|-2----5----5---4-----7/87/87-||
    E|-0----7----3---2-----5/65/65-||
    
    Chorus lyric
    
    Woman of dark desires...
    Woman of eternal beauty..
    woman of dark desires..
    Elizabeth bathory...
     
     Riff 1 x 24 
    
     Interlude x1
    
     Chorus x1
     
     Interlude 2
    
    e|-----------|__|------------------|__|| 
    b|-----------|  |------------------|  ||  
    g|-----------|  |------------------|  || X2
    d|-222--55-4-|x2|---222--66--44----|x2|| 
    a|-222--55-4-|  |---222--46--44----|  || 
    E|-000--33-2-|__|---000--44--22----|__|| 
    
    Interlude 3 
     
    e|----------------------|| 
    b|----------------------|| 
    g|----------------------|| x 4 
    d|--10------7---6---4---|| 
    a|--10------7---6---4---|| 
    E|--8-------5---4---2---|| 
    
    Riff 1      - whit/solo x 24
     
    Riff 1      - whit/liryc x 16
     
    Interlude 1 -  x1
    
    Chorus      - x2
    
    End riff    - x1
    
    e|--------||
    b|--------||
    g|--------||
    d|-3--2---||
    a|-3--2---||
    E|-1--0---||
     

    Тональность:

    Нет текста!



    Назад
    Рекомендуем посмотреть другие песни исполнителя «Marduk»:

    • Комментарии Facebook ()
    • Комментарии ВКонтакте



    Добавить в Избранное Браузера
    Сохранить здесь Очистить


    x

    0


    +
    -

    +
    -

    -

    Авторизация





    Зарегистрироваться

    M

    Дата и время

    • 06:58:35
       

    Социальные ссылки


    Наши приложения

    • Muzbank App Play Market
    • Muzbank Amazon App