MUZBANK



A Most Complete Bank Of Music Information

МУЗЫКАЛЬНО-ИНФОРМАЦИОННЫЙ БАНК








    MMarilyn Manson • 1996 Live (аккорды и текст - chords & lyrics)


    273

    Print

    Видео «1996 Live (Marilyn Manson)»

    Видео клипы к песне подбираются автоматически сайтом youtube. Возможны некоторые несоответствия клипов песне.

    ↑ Спрятать рекламу ↑





     
    
    
    1996 (live) by Marilyn Manson
    Guitarist: Zim Zum
    Album: Dead To The World Video
    Dif.: 7
    Tabbed by TWIGGy5
    
    Chorus (w/ heavy ass distortion)
    G|-----------------------12-7-9--------------------------
    D|-2---5-8-7----------2--12-7-9--------2---5-8-7---------
    A|-2---5-8-7----------2--10-5-7--------2---5-8-7---------
    E|-0---3-6-5--00-000--0---------00-000-0---3-6-5--00-000-
                 PM-----|           PM----|          PM-------|
    
    Chorus (cont.)
    G|----12-7-9--97-2-R-|
    D|-2--12-7-9--97-2-R-|
    A|-2--10-5-7--75-2-R-|
    E|-0------------------|
    
    Chorus 2
    G|-----------------------12-7-9--------|-%-|---------------
    D|-2---5-8-7----------2--12-7-9--------|-%-|-2---5-8-7-6-5-
    A|-2---5-8-7----------2--10-5-7--------|-%-|-2---5-8-7-6-5-
    E|-0---3-6-5--00-000--0---------00-000-|-%-|-0---3-6-5-4-3-
                 PM-----|           PM----|
    
    Chorus 2 (cont.)
    G|---12-7-9--------|---------------|----12-7-9--97-|
    D|2--12-7-9--------|-2---5-8-7-6-5-|-2--12-7-9--97-|
    A|2--10-5-7--------|-2---5-8-7-6-5-|-2--10-5-7--75-|
    E|0---------00-000-|-0---3-6-5-4-3-|-0--------------|
               PM-----|
    
    Fill 1 ( 

    Тональность:

    Нашли ошибку?



    Назад
    Рекомендуем посмотреть другие песни исполнителя «Marilyn Manson»:

    • Комменты Fb ()
    • Комменты ВК



    Добавить в Избранное Браузера
    Сохранить здесь Очистить


    x

    0


    +
    -

    +
    -

    -

    Авторизация





    Зарегистрироваться

    M

    Дата и время

    • 08:24:23
       

    Социальные ссылки


    Наши приложения

    • Muzbank App Play Market
    • Muzbank Amazon App