MUZBANK



A Most Complete Bank Of Music Information

МУЗЫКАЛЬНО-ИНФОРМАЦИОННЫЙ БАНК








    MMarilyn Manson • Apple Of Sodom (аккорды и текст - chords & lyrics)


    331

    Print

    Видео «Apple Of Sodom (Marilyn Manson)»

    Видео клипы к песне подбираются автоматически сайтом youtube. Возможны некоторые несоответствия клипов песне.

    ↑ Спрятать рекламу ↑





     
    
    
    Apple of Sodom - Marilyn Manson
    
    By: Jon Craven (i_apathy@hotmail.com)
    For questions, comments, feedback, an outline of the timing, write the above
    address.
    
    Note:
      -Played with a pick.
    
    (4/4)(99 bpm)
    Dropped-D tuning
    
    * - note held for an eighth beat
    r - eighth rest
     - slide down
    . - sixteent rest
    
    Chorus (verse 1): (x8)(0:53)
    |-----------------|-------------------|
    |-----------------|-------------------|
    |-----------------|-----------12-*-*--|
    |0-*-*-r-12----r-|0---r-.12---------|
    
    Verse 1 (x4)
    
    Pre-chorus: (x4)(1:32)
    |-----------------|-------------------|
    |-----------------|-------------------|
    |-----------------|-------------------|
    |12-*-*-*-0-*-*-*-|15-*-*-14-*-*-13---|
    
    Chorus (x6)
    Rest for twelve measures
    
    Verse 2: (x4)(2:49)
    |------------------|-------------------|
    |------------------|-------------------|
    |------------------|-------------------|
    |0---0---0-12-13---|0---0---0-12-13-12-|
    
    Outro: (x8)(3:09)(fades on 7th repeat)
    |-----------------|----------------------|-----------------|
    |-----------------|----------------------|-----------------|
    |-----------------|----------------------|-----------------|
    |0---12--12-*-*-*-|12-10-12-*-*-10-12-10-|0---12--12-*-*-*-|
    
    |-----------------------|
    |-----------------------|
    |-----------------------|
    |12-10-12---10-12-10-12-|
     

    Тональность:

    Нашли ошибку?



    Назад
    Рекомендуем посмотреть другие песни исполнителя «Marilyn Manson»:

    • Комменты Fb ()
    • Комменты ВК



    Добавить в Избранное Браузера
    Сохранить здесь Очистить


    x

    0


    +
    -

    +
    -

    -

    Авторизация





    Зарегистрироваться

    M

    Дата и время

    • 02:33:58
       

    Социальные ссылки


    Наши приложения

    • Muzbank App Play Market
    • Muzbank Amazon App