MUZBANK



A Most Complete Bank Of Music Information

МУЗЫКАЛЬНО-ИНФОРМАЦИОННЫЙ БАНК

Поиск по сайту







    MMarilyn Manson • Burning Flag (аккорды и текст - chords & lyrics)


    285

    Print

    Видео «Burning Flag (Marilyn Manson)»

    Видео клипы к песне подбираются автоматически сайтом youtube. Возможны некоторые несоответствия клипов песне.

    ↑ Спрятать рекламу ↑



    Download


     
    
    
    MARILYN MANSON - BURNING FLAG
    Tabbed by: Mattias Jaselius
    
    Tuning: Drop D
    
    INTRO/VERSE: 
    
    e|----------|
    b|----------|
    g|----------|
    d|-0-6-0----|
    a|-0-6-0----|
    d|-0-6-0----|
    
    (Continued): Repeat a few times
    
    e|------------------------|
    b|------------------------|
    g|------------------------|
    d|-------0-6-0------------|
    a|-XXXXX-0-6-0-XXXXX------|
    d|-XXXXX-0-6-0-XXXXX------|
    
    RIFF 2: 4x
    
    e|----------------------------------------|
    b|----------------------------------------|
    g|----------------------------------------|
    d|-3-0-----3-0-----3-0----------0-6-0-----|
    a|-3-0-XXX-3-0-XXX-3-0-XXXXXXXX-0-6-0-----|
    d|-3-0-XXX-3-0-XXX-3-0-XXXXXXXX-0-6-0-----|
    
    RIFF 3:
    
    e|------------------------------------------------------------|
    b|------------------------------------------------------------|
    g|------------------------------------------------------------|
    d|--6-6-6--------6-6-6--------6-6-6--------6-6-6--------------|
    a|--6-6-6-XXXXXX-6-6-6-XXXXXX-6-6-6-XXXXXX-6-6-6-XXXXXX-------|
    d|--6-6-6-XXXXXX-6-6-6-XXXXXX-6-6-6-XXXXXX-6-6-6-XXXXXX-------|
      (Multiply your death...)
    
    CHORUS: Repeat a few times
    
    e|-----------------------|
    b|-----------------------|
    g|-7-7-7-5-8-------------|
    d|-7-7-7-5-8-------------|
    a|-5-5-5-3-6-------------|
    d|-----------------------|
      (We are all just stars and we 

    Тональность:

    Нет текста!



    Назад
    Рекомендуем посмотреть другие песни исполнителя «Marilyn Manson»:

    • Комментарии Facebook ()
    • Комментарии ВКонтакте



    Добавить в Избранное Браузера
    Сохранить здесь Очистить


    x

    0


    +
    -

    +
    -

    -

    Авторизация





    Зарегистрироваться

    M

    Дата и время

    • 07:07:46
       

    Социальные ссылки


    Наши приложения

    • Muzbank App Play Market
    • Muzbank Amazon App