MUZBANK



A Most Complete Bank Of Music Information

МУЗЫКАЛЬНО-ИНФОРМАЦИОННЫЙ БАНК

Поиск по сайту







    MMarilyn Manson • Cruci-fiction In Space (аккорды и текст - chords & lyrics)


    270

    Print

    Видео «Cruci-fiction In Space (Marilyn Manson)»

    Видео клипы к песне подбираются автоматически сайтом youtube. Возможны некоторые несоответствия клипов песне.

    ↑ Спрятать рекламу ↑



    Download


     
    
    
    Cruci-Fiction in Space - Marilyn Manson
    
    By: Jon Craven (i_apathy@hotmail.com)
    For questions, comments, feedback, an outline of the timing, write the above
    address.
    
    Note:
      -Played with a pick.
    
    (4/4)(100 bpm)
    Tuned one and a half steps down (low to high: Db Gb B E)
    
    * - note held for an eighth beat
    / - slide up
     - slide down
    + - note held for a sixteenth beat
    
    Intro (verse/outro): (x16)
    |--------------------|
    |--------------------|
    |--------------------|
    |12---12---12---12---|
    
    Verse (x16)
    
    Chorus: (x4)(1:16)
    |----------------------|------------------|
    |----------------------|------------------|
    |----------------------|------------------|
    |12-12-12-10-12-10-3-*-|*-*-*-*-12---10---|
    
    Bridge 1: (1:36)
    |-------------------|------------------|-------------------|------------------|
    |-------------------|------------------|-------------------|------------------|
    |-------------------|------------------|-------------------|------------------|
    |12-*-*-12/18-*-*-*-|*-*-*-*-17---16---|12-*-*-12/18-*-*-*-|*-*-*-*-17---16-0|
    
    Verse (x8)
    Chorus (x4)
    
    Bridge 2: (x4)(2:24)
    |-----------------------|----------------|
    |-----------------------|----------------|
    |------------------15-*-|*-*-*-*-*-*-*-*-|
    |12-12-12-12-12-12------|----------------|
    
    Interlude: (x8)(2:43)
    |-------------------|---------------------|
    |-------------------|---------------------|
    |13-*-*-12-*-*-10-*-|*--------------------|
    |-------------------|--12-*-+010-12-10-12-|
    
    Outro (x24)
    Rest till end
     

    Тональность:

    Нет текста!



    Назад
    Рекомендуем посмотреть другие песни исполнителя «Marilyn Manson»:

    • Комментарии Facebook ()
    • Комментарии ВКонтакте



    Добавить в Избранное Браузера
    Сохранить здесь Очистить


    x

    0


    +
    -

    +
    -

    -

    Авторизация





    Зарегистрироваться

    M

    Дата и время

    • 07:16:19
       

    Социальные ссылки


    Наши приложения

    • Muzbank App Play Market
    • Muzbank Amazon App