MUZBANK



A Most Complete Bank Of Music Information

МУЗЫКАЛЬНО-ИНФОРМАЦИОННЫЙ БАНК

Поиск по сайту







    MMarilyn Manson • Disassociative (аккорды и текст - chords & lyrics)


    360

    Print

    Видео «Disassociative (Marilyn Manson)»

    Видео клипы к песне подбираются автоматически сайтом youtube. Возможны некоторые несоответствия клипов песне.

    ↑ Спрятать рекламу ↑



    Download


     
    
    
    Disassociative by Marilyn Manson
    Guitarist: Twiggy Ramirez + Zim Zum
    Album: Mechanical Animals
    Dif.: 6
    Tabbed by TWIGGy5
    
    NOTE: * = strum 8x
    
    Intro/Verse (clean w/ tremelo)
    E|------0------------0------------------------------|
    B|--------0--------3-1----------0-------------------|
    G|-------------------0--------0--------0--3/5--2-2--|
    D|---2----------4----2------0--------2----3/5--2-2--|
    A|-0--------3/5------3----2--------3------1/2--0-0--|
    
    Pre-Chorus (Synth. Arr for Gtr. 4)
    B|--12----10----8------------7---|
    
    Chorus (Gtr. 1 w/ dist.)
    D|-3*-7*-10*-7*-|-3*-7*-10*-----|
    A|-3*-7*-10*-7*-|-3*-7*-10*-----|
    E|-1*-5*--8*-5*-|-1*-5*--8*-----|
    
    Post-Chorus (Gtr. 2 w/ light distortion)
    G|----5p4h5-----5---5--|
    D|--4-------4p3---2----|
    
    Chorus 3 (Gtr. 3 clean w/ tremelo)
    E|-----0-------0-------0-------0----|
    B|-------0-------0-------0-------0--|
    D|-----------2-------5-------2------|
    A|---3-----0-------3-------0--------|
    E|-1--------------------------------|
    
    Solo Type Thingy (Gtr. 2 w/ dist.)
    e|-8^---5----10^--7--8--5--|
    
    Song Structure: -
    Effects
    Intro
    Rest For Bass Verse Shit ( 

    Тональность:

    Нет текста!



    Назад
    Рекомендуем посмотреть другие песни исполнителя «Marilyn Manson»:

    • Комментарии Facebook ()
    • Комментарии ВКонтакте



    Добавить в Избранное Браузера
    Сохранить здесь Очистить


    x

    0


    +
    -

    +
    -

    -

    Авторизация





    Зарегистрироваться

    M

    Дата и время

    • 07:10:14
       

    Социальные ссылки


    Наши приложения

    • Muzbank App Play Market
    • Muzbank Amazon App