MUZBANK



A Most Complete Bank Of Music Information

МУЗЫКАЛЬНО-ИНФОРМАЦИОННЫЙ БАНК

Поиск по сайту







    MMarilyn Manson • Dried Up Tied And Dead To The Wor (аккорды и текст - chords & lyrics)


    251

    Print

    Видео «Dried Up Tied And Dead To The Wor (Marilyn Manson)»

    Видео клипы к песне подбираются автоматически сайтом youtube. Возможны некоторые несоответствия клипов песне.

    ↑ Спрятать рекламу ↑



    Download


     
    
    
    Dried Up, Tied, and Dead to the World - Marilyn Manson
    
    By: Jon Craven (i_apathy@hotmail.com)
    For questions, comments, feedback, an outline of the timing, write the above
    address.
    
    Notes:
      -Played with a pick.
      -A legato slide is where the notes are played smoothly; in this case the D
    (A:-5) is played in the middle of the slide to the E (A:-7).
      -Measures in the chorus have been expanded by one space; the notes are still
    sixteenth notes.
    
    (4/4)(88 bpm)
    Standard tuning
    
    * - note held for an eighth beat
    / - slide up
    *L* - legato slide
    . - sixteenth rest
    R - quarter rest
    
    Intro: (played softly)
    |----------------|----------------|----------------|----------------|
    |----------------|----------------|----------------|----------------|
    |7-*-*-*-*-*-*-*-|*-*-*-*-*-7-7-7-|----7-------5-7-|----7-------5-7-|
    |----------------|----------------|00-0--00-00-----|00-0--00-00-----|
    
    |----------------|----------------|
    |----------------|----------------|
    |----7-------5-7-|----7-------5-7-|
    |00-0--00-00-----|00-0--00-00-----|
    
    Verse: (x8)(0:16)
    |----------------|
    |-----------*L*--|
    |---/7------/5777|
    |00-0--00-000----|
    
    Rest for two measures
    Verse (x8)
    
    Chorus: (x2)(1:06)
    |----------------|----------------------------------------|----------------|
    |-----------*L*--|----------------------------------------|----------------|
    |---/7------/5777|5-5-5-5-5-5-5-5/10-10-10-10-10-10-10-10-|----------------|
    |00-0--00-000----|----------------------------------------|7777777777778888|
    
    |----------------------------------------|
    |----------------------------------------|
    |12-12-12-12-12-12-12-12-0-0-0-0---------|
    |--------------------------------0-0-0-0-|
    
    Rest for four measures
    Verse (x8)
    Chorus (x2)
    Rest for eight measures
    Chorus (x4)
    
    Outro: (x16)(3:27)
    |----------------|
    |----------------|
    |----------------|
    |00-.00-00-0-R---|
    
    Rest till end
     

    Тональность:

    Нет текста!



    Назад
    Рекомендуем посмотреть другие песни исполнителя «Marilyn Manson»:

    • Комментарии Facebook ()
    • Комментарии ВКонтакте



    Добавить в Избранное Браузера
    Сохранить здесь Очистить


    x

    0


    +
    -

    +
    -

    -

    Авторизация





    Зарегистрироваться

    M

    Дата и время

    • 07:32:43
       

    Социальные ссылки


    Наши приложения

    • Muzbank App Play Market
    • Muzbank Amazon App