MUZBANK



A Most Complete Bank Of Music Information

МУЗЫКАЛЬНО-ИНФОРМАЦИОННЫЙ БАНК

Поиск по сайту







    MMatches • Destination Nowhere Near (аккорды и текст - chords & lyrics)


    234

    Print

    Видео «Destination Nowhere Near (Matches)»

    Видео клипы к песне подбираются автоматически сайтом youtube. Возможны некоторые несоответствия клипов песне.

    ↑ Спрятать рекламу ↑



    Download


     
    
    
    Intro
    e|-----------------------------------------------|
    b|-----------------------------------------------|
    g|6--7--14----6--7--14----6--7--6--7--6--7--9----|
    d|6--7--14----6--7--14----6--7--6--7--6--7--9----|
    a|4--5--12----4--5--12----4--5--4--5--4--5--7----|
    E|-----------------------------------------------|
    
    Verse
    e|-------------------------|
    b|-------------------------|
    G|-----------------7x7x9x9-|
    d|7----------------7x7x9x9-| Repeat 1x
    a|7(keep strumming)5x5x7x7-|
    E|5------------------------|
    
    Pre-Chorus
    e|--------------------------------------------------|
    b|-------7x77--------9x99----------7x77-------------|
    g|-------7x77--------9x99----------7x77-------------|
    D|4-4-4--7x77---7-7-79x99----4-4-4-7x77-7-7-7-2222--|
    a|4-4-4---------7-7-7--------4-4-4------7-7-7-2222--|
    E|2-2-2---------5-5-5--------2-2-2------5-5-5-0000--|
    
    Chorus
    e|---------------------------------------------|
    b|-------------------------101010109999--------|
    g|6666666677777777---------9-9-9-9-9999--------|
    d|666666667777777777777777---------------------|
    a|444444445555555577777777---------------------|
    E|----------------55555555---------------------|
    
    e|----------------------------------|
    b|----------------------------------|
    g|6666666677777777------------------|
    d|66666666777777777777777777777-----|
    a|44444444555555557777777777777-----|
    E|----------------5555555555555-----|
    
    e|----------------------------------|
    b|----------------------------------|
    g|66667777666677776666777799999999--|
    d|66667777666677776666777799999999--|
    a|44445555444455554444555577777777--|
    E|----------------------------------|
    
    Interlude
    Immediately after the second chorus hit
    e|--------------------------------------|
    b|10----5----3----2---------------------|
    g|10----5----3----2---------------------|
    d|10----5----3----2---------------------|
    a|--------------------------------------|
    E|--------------------------------------|
     

    Тональность:

    Нет текста!



    Назад
    Рекомендуем посмотреть другие песни исполнителя «Matches»:

    • Комментарии Facebook ()
    • Комментарии ВКонтакте



    Добавить в Избранное Браузера
    Сохранить здесь Очистить


    x

    0


    +
    -

    +
    -

    -

    Авторизация





    Зарегистрироваться

    M

    Дата и время

    • 23:37:43
       

    Социальные ссылки


    Наши приложения

    • Muzbank App Play Market
    • Muzbank Amazon App