MUZBANK



A Most Complete Bank Of Music Information

МУЗЫКАЛЬНО-ИНФОРМАЦИОННЫЙ БАНК

Поиск по сайту







    MMayhem • Pure Fucking Armageddon (аккорды и текст - chords & lyrics)


    279

    Print

    Видео «Pure Fucking Armageddon (Mayhem)»

    Видео клипы к песне подбираются автоматически сайтом youtube. Возможны некоторые несоответствия клипов песне.

    ↑ Спрятать рекламу ↑



    Download


     
    
    
    Mayhem - Pure Fucking Armageddon
       From the Album Deathcrush
        1993 DSP                          
                                      
    Transcribed by Black Metaller (blackmetaller666@hotmail.com)
    
    Tuning: C
    
    
    Riff A
    |-------------------------------|
    |-------------------------------|
    |-------------------------------|
    |--222222222222222222222--------|
    |--222222222222222222222--------|
    |--000000000000000000000--------|
    
    Note: the beginning varies from each Mayhem release, 
    this is it for Deathcrush, along with a bunch of indicipherable 
    high tremolo stuff
    
    Riff B
    |-------------------------------|
    |-------------------------------|
    |-------------------------------|
    |-------------------------------|
    |---------4-----5-----4-------8-|
    |-0-0-0-0-2-0-0-3-0-0-2-0-0-0-6-|
    
    
    
    Riff C
    |-------------|
    |-------------|
    |-------------|
    |-------------|
    |-------8888--|
    |--0000-------|
    
    
     Riff D 
    |--------------------------------|
    |--------------------------------|
    |--------------------------------|
    |--------------------------------|
    |----------4---5-----------------|
    |--0-0-0-0-2-0-3-0---------------|
    
    
    
    Riff E
    |---------|
    |---------|
    |---------|
    |---------|
    |--2~-----|
    |--0~-----|
    
    Riff F
    |------------------|
    |------------------|
    |------------------|
    |------------------|
    |--2~-----4~-------|
    |--0~-----2~-------|
    
    Order:
    
    Riff A x1
    Riff B x10
    Riff C x16
    Riff D x8
    Riff E x1
    Riff C x16
    Riff D x14
    Riff F x1
    Riff D x16
    Riff F x1
    Riff D x4
    Riff E x1
    Riff C x4
     

    Тональность:

    Нет текста!



    Назад
    Рекомендуем посмотреть другие песни исполнителя «Mayhem»:

    • Комментарии Facebook ()
    • Комментарии ВКонтакте



    Добавить в Избранное Браузера
    Сохранить здесь Очистить


    x

    0


    +
    -

    +
    -

    -

    Авторизация





    Зарегистрироваться

    M

    Дата и время

    • 11:05:34
       

    Социальные ссылки


    Наши приложения

    • Muzbank App Play Market
    • Muzbank Amazon App