MUZBANK



A Most Complete Bank Of Music Information

МУЗЫКАЛЬНО-ИНФОРМАЦИОННЫЙ БАНК

Поиск по сайту







    MMegadeth • 1000 Times Goodbye (аккорды и текст - chords & lyrics)


    325

    Print

    Видео «1000 Times Goodbye (Megadeth)»

    Видео клипы к песне подбираются автоматически сайтом youtube. Возможны некоторые несоответствия клипов песне.

    ↑ Спрятать рекламу ↑



    Download


     
    
    
    MEGADETH
                                1000 TIMES GOODBYE
    standerd tuning
    Intro
    Moderately fast=158
    |-----------------------------------|
    |-----------------------------------|
    |-----------------------------------|
    |-----------------------------------| play 7
    |-----------------------------------| times
    |--0-0-0-0-1-1-1-1-0-0-0-0-4-3-2-1--|
       pm=============================
    
    |-----------------------------------|
    |-----------------------------------|
    |-----------------------------------|
    |--------------------------5--------|
    |-----------------------------------|
    |--0-0-0-0-1-1-1-1-0-0-5^6---6-5^3--|
       pm=================
    
    |-----------------------------------|
    |-----------------------------------|
    |-----------------------------------|
    |-----------------------------------| play 3
    |-----------------------------------| times
    |--0-0-0-0-1-1-1-1-0-0-0-0-4-3-2-1--|
       pm=============================
    
    |-----------------------------------|
    |-----------------------------------|
    |-----------------------------------|
    |--------------------------5--------|
    |-----------------------------------|
    |--0-0-0-0-1-1-1-1-0-0-5^6---6-5^3--|
       pm=================
    
    |-----------------------------------|
    |-----------------------------------|
    |-----------------------------------|
    |-----------------------------------| play 2
    |-----------------------------------| times
    |--0-0-0-0-1-1-1-1-0-0-0-0-4-3-2-1--|
       pm=============================
    
    |-------------------------------------------------------------------|
    |-------------------------------------------------------------------|
    |-------------------------------------------------------------------|
    |----------------------------------------------------------5--------|
    |-------------------------------------------------------------------|
    |--0-0-0-0-1-1-1-1-0-0-0-0-4-3-2-1-0-0-0-0-1-1-1-1-0-0-5^6---6-5^3--|
       pm=================================================
    
    |-------------------------------------------------------------------|
    |-------------------------------------------------------------------|
    |-------------------------------------------------------------------|
    |----------------------------------------------------------5--------| play 4
    |------5^7-----5^7---------------------5^7-----8^7------------------| times
    |--0-0-----0-0-----0-0-0-0-0-0-0-0-0-0-----0-0-----0-0-5^6---6-5^3--|
       pm=     pm=     pm=================     pm=     pm=
    
    |---------------------------------------------------------------|
    |---------------------------------------------------------------|
    |---------------------------------------------------------------|
    |---------------------------------------------------------------| play 2
    |--0-----2-------3-------2-------0-----2-------3-------2--------| times
    |----2-2---2-2-2---2-2-2-0---1-2---2-2---2-2-2---2-2-2-0---1-2--|
         pm=   pm===   pm===           pm=   pm===   pm===
    
    
    
    
    The tides of change pulled us apart
    I feel a familiar pain
    It seems like years since we've loved
    Or even liked and that's a lonely way to be
    
    Drifting alone in a sea of agony
    Your face I can't recognize
    Don't make this hard on us
    I will miss you if you just go away
    
    I did no right you did no wrong
    Nothing left but wasted days
    I regret you leaving
    But I will never take you back
    
    You know what? It's over
    I just don't feel the same way as I used to
    We've been together forever, but it's over
    
    Goodbye 1000 times goodbye
    The thought never crossed my mind
    That this would be my last goodbye
    Let me put pennies on your eyes
    And kiss your lips one last goodbye
    My love 1000 times goodbye
    
    It seems nothing good is free
    A good thing cost much more than the price
    You were good but not that good
    Don't kid yourself now it's time to beak up
    
    Drifting alone in a sea of agony
    Your face I can't recognize
    Don't make this hard on us
    I will miss you if you just go away
    
    I did no right you did no wrong
    Nothing left but wasted days
    I regret you leaving
    But I'll never take you back
    
    Don't call me anymore. It's just not.
    I don't feel the same way about you
    Its not as good as it used to be
    
    Goodbye 1000 times goodbye
    The thought never crossed my mind
    That this would be my last goodbye
    Let me put pennies on your eyes
    And kiss your lips one last goodbye
    My love 1000 times goodbye
    
    I'll always love you but just not like that
    Like what?
    I want to be honest with you I met someone else
    You did what?
    And I really, I really love him like I used to love you
    Remember the time that I told you that
    I was going out of town for business?
    Well I went to see him
    You know what? You suck!
    
    Goodbye 1000 times
    You'll always have a special place
    In my heart you know that
    It's just I can't be with you anymore it's over
    Goodbye 1000 times
    Things may not work out with him
    Goodbye 1000 times
    And if they don't
    Goodbye 1000 times
    Then I'll certainly call you
    Goodbye 1000 times
    You mean a lot to me
    I still really want to be friends with you
    I love you like you're my brother
    
    
    
    Tuning: Standard 
     
    Riff 1
    Guitar 1                          x7
    e|---------------------------------|
    B|---------------------------------|
    G|---------------------------------|
    D|---------------------------------|
    A|---------------------------------|
    E|-0-0-0-0-1-1-1-1-0-0-0-0-4-3-2-1-|
       * * * * * * * * * * * * * * * *
     
    Guitar 2 (comes in after awhile)
    e|-12------------------12------------------------|
    B|-h.-[fades in]----12----[let bottom note ring]-|
    G|-----------------------------------------------|
    D|-----------------------------------------------|
    A|-----------------------------------------------|
    E|-----------------------------------------------|
     
     
    Riff 2
    e|---------------------------------|
    B|---------------------------------|
    G|---------------------------------|
    D|-------------------------5-------|
    A|---------------------------------|
    E|-0-0-0-0-1-1-1-1-0-0-5h6---6-5\3-|
       * * * * * * * * * *
     
    Play Riff 1 3x, then Riff 2.  Do this 3 times. 
     
     
    Riff 3
    e|---------------------------------|
    B|---------------------------------|
    G|---------------------------------|
    D|---------------------------------|
    A|-----5h7-----5h7-----------------|
    E|-0-0-----0-0-----0-0-0-0-0-0-0-0-|
       * *     * *     * * * * * * * *
      "The tides of change..."
    e|---------------------------------|
    B|---------------------------------|
    G|---------------------------------|
    D|-------------------------5-------|
    A|-----5h7-----8p7-----------------|
    E|-0-0-----0-0-----0-0-5h6---6-5\3-|
       * *     * *     * *
      "I feel a familiar pain..."
     
     
    Riff 4                         x4
    e|------------------------------|
    B|------------------------------|
    G|------------------------------|
    D|------------------------------|
    A|-------2-------3-------2------|
    E|-5-2-2---2-2-2---2-2-2-0--1-2-|
         * *   * * *   * * *
      "I did no right, you did no wrong..."
     
     
    Riff 5 (Solo Rhythm)           x4
    e|------------------------------|---------------|
    B|------------------------------|---------------|
    G|------------------------------|---------------|
    D|------------------------------|---------------|
    A|---------7tr8-7-------5-------|-------5-------|
    E|-0-0-0-0------5-5-6-7---7-6-5-|-5-6-7---7-6-5-|
       * * * *        * * *   * * *   * * *   * * *
    
    
    Riff 6
    e|---------------------------------|
    B|---------------------------------|
    G|---------------------------------|
    D|---------------------------------|
    A|-4-----------2-------------------|
    E|---0-1-2-0-2---0-1-2-0-2-5-0-2-0-|
         * * * * *   * * * * *   * * *
      "Goodbye, 1000 times goodbye..."
    e|---------------------------------|
    B|---------------------------------|
    G|---------------------------------|
    D|---------------------------------|
    A|-5-----------2-------------------|
    E|---0-1-2-0-2---0-1-2-0-2-5-0-2-0-|
         * * * * *   * * * * *   * * *
      "The thought never crossed my mind..."
    e|---------------------------------|
    B|---------------------------------|
    G|---------------------------------|
    D|---------------------------------|
    A|-4-----------2-------------------|
    E|---0-1-2-0-2---0-1-2-0-2-5-0-2-0-|
         * * * * *   * * * * *   * * *
      "That this would be my last goodbye..."
     
    e|--------------------------|
    B|--------------------------|
    G|--------------------------|
    D|--------------------------|
    A|-4-4-4-2--/5--4-4-4-2--/5-|
    E|-2-2-2-0--/3--2-2-2-0--/3-|
     
     Play Riff 6   "Goodbye, 1000 times goodbye..." 
     
    Riff 7
    e|---------------------------------|
    B|---------------------------------|
    G|---------------------------------|
    D|-9-----------7-----------5-------|
    A|---5-6-7-5-7---5-6-7-5-7---5-7-5-|
    E|---------------------------------|
         * * * * *   * * * * *   * * *
      "Goodbye, 1000 times goodbye..."
    e|----------------------------------|
    B|----------------------------------|
    G|----------------------------------|
    D|-10-----------7-----------5-------|
    A|----5-6-7-5-7---5-6-7-5-7---5-7-5-|
    E|----------------------------------|
          * * * * *   * * * * *   * * *
      "The thought never crossed..."
    e|---------------------------------|
    B|---------------------------------|
    G|---------------------------------|
    D|-9-----------7-----------5-------|
    A|---5-6-7-5-7---5-6-7-5-7---5-7-5-|
    E|---------------------------------|
         * * * * *   * * * * *   * * *
      "That this would be my last goodbye..."
     
    e|--------------------------|
    B|--------------------------|
    G|--------------------------|
    D|-9-9-9-7-/10--9-9-9-7-/10-|
    A|-7-7-7-5-/-8--7-7-7-5-/-8-|
    E|--------------------------|
     
    e|---------------------------------|
    B|---------------------------------|
    G|---------------------------------|
    D|-9-----------7-----------5-------|
    A|---5-6-7-5-7---5-6-7-5-7---5-7-5-|
    E|---------------------------------|
         * * * * *   * * * * *   * * *
      "Let me put pennies on your eyes..."
    e|----------------------------------|
    B|----------------------------------|
    G|----------------------------------|
    D|-10-----------7-----------5-------|
    A|----5-6-7-5-7---5-6-7-5-7---5-7-5-|
    E|----------------------------------|
          * * * * *   * * * * *   * * *
      "And kiss your lips one last goodbye..."
    e|------------------------------------|
    B|------------------------------------|
    G|------------------------------------|
    D|-9-----------7-----------5----------|
    A|---5-6-7-5-7---5-6-7-5-7---5-7-5--2-|
    E|----------------------------------0-|
         * * * * *   * * * * *   * * *
      "My love, a 1000 times goodbye..."
     
     
    Riff 8
    Guitar 1
    e|---------------------|
    B|---------------------|
    G|---------------------|
    D|---------------------|
    A|-(2)---4---5---7--8--|
    E|-(0)---2---3---5--6--|
     
    e|---------------------|
    B|---------------------|
    G|---------------------|
    D|---------------------|
    A|--2----4---5---7--8--|
    E|--0----2---3---5--6--|
    
    
    
    Riff 9 (Solo Rhythm)
    e|----------------------------------|
    B|----------------------------------|
    G|----------------------------------|
    D|----------------------------------|
    A|----------------------------------|
    E|-000-0-000-0-000--000-0-000-0-000-|
       *** * *** * ***  *** * *** * ***
    e|----------------------------------|
    B|----------------------------------|
    G|----------------------------------|
    D|----------------------------------|
    A|----------------------------------|
    E|-222-2-222-2-222--222-2-222-2-222-|
       *** * *** * ***  *** * *** * ***
    e|----------------------------------|
    B|----------------------------------|
    G|----------------------------------|
    D|----------------------------------|
    A|----------------------------------|
    E|-333-3-333-3-333--333-3-333-3-333-|
       *** * *** * ***  *** * *** * ***
    e|----------------------------------|
    B|----------------------------------|
    G|----------------------------------|
    D|----------------------------------|
    A|----------------------------------|
    E|-555-5-555-5-555--666-6-666-6-666-|
       *** * *** * ***  *** * *** * ***
     
    Riff 10       x4
    e|-------------|---------|
    B|-------------|---------|
    G|-------------|---------|
    D|-------------|---------|
    A|--2---5-7-8--|--8-7-5--|
    E|--0---3-5-6--|--6-5-3--|
    
    
    
    Riff 3a (Play 2x)
    e|---------------------------------|
    B|---------------------------------|
    G|---------------------------------|
    D|---------------------------------|
    A|-----5h7-----5h7-----------------|
    E|-0-0-----0-0-----0-0-0-0-0-0-0-0-|
       * *     * *     * * * * * * * *
    e|---------------------------------|
    B|---------------------------------|
    G|---------------------------------|
    D|-------------------------5-------|
    A|-----5h7-----8p7-----------------|
    E|-0-0-----0-0-----0-0-5h6---6-5\3-|
       * *     * *     * *
    e|---------------------------------|
    B|---------------------------------|
    G|---------------------------------|
    D|---------------------------------|
    A|-----5h7-----5h7-----------------|
    E|-0-0-----0-0-----0-0-0-0-0-0-0-0-|
       * *     * *     * * * * * * * *
    e|----------------------------|
    B|----------------------------|
    G|----------------------------|
    D|----------------------------|
    A|-----5h7-----8p7-------5--7-|
    E|-0-0-----0-0-----0-0-0-3--5-|
       * *     * *     * * *
      "Goodbye....a 1000 times..."
     
     
    Riff 3b
    e|---------------------------------|
    B|---------------------------------|
    G|---------------------------------|
    D|-------------------------5-------|
    A|-----5h7-----8p7-----------------|
    E|-0-0-----0-0-----0-0-5h6---6-5\3-|
       * *     * *     * *
    e|----------------------------|
    B|----------------------------|
    G|----------------------------|
    D|----------------------------|
    A|-----5h7-----8p7-------5--7-|
    E|-0-0-----0-0-----0-0-0-3--5-|
       * *     * *     * * *
     "Goodbye....a 1000 times..."
    
    Ending
    e|---------------------------------|
    B|---------------------------------|
    G|---------------------------------|
    D|-------------------------5-------|
    A|-----5h7-----8p7-----------------|
    E|-0-0-----0-0-----0-0-5h6---6-5\3-|
       * *     * *     * *
    e|--------------------------------|
    B|--------------------------------|
    G|--------------------------------|
    D|--------------------------------|
    A|-----5h7-----8p7-5-7-8--8-7-5-2-|
    E|-0-0-----0-0-----3-5-6--6-5-3-0-|
       * *     * *
    
    
     

    Тональность:

    Нет текста!



    Назад
    Рекомендуем посмотреть другие песни исполнителя «Megadeth»:

    • Комментарии Facebook ()
    • Комментарии ВКонтакте



    Добавить в Избранное Браузера
    Сохранить здесь Очистить


    x

    0


    +
    -

    +
    -

    -

    Авторизация





    Зарегистрироваться

    M

    Дата и время

    • 13:37:11
       

    Социальные ссылки


    Наши приложения

    • Muzbank App Play Market
    • Muzbank Amazon App