MUZBANK



A Most Complete Bank Of Music Information

МУЗЫКАЛЬНО-ИНФОРМАЦИОННЫЙ БАНК

Поиск по сайту







    MMegadeth • 44 Minutes (аккорды и текст - chords & lyrics)


    306

    Print

    Видео «44 Minutes (Megadeth)»

    Видео клипы к песне подбираются автоматически сайтом youtube. Возможны некоторые несоответствия клипов песне.

    ↑ Спрятать рекламу ↑



    Download


    It was a cold winter`s morning
    Somewhere shortly past 9:00 AM
    The armored car they wanted to heist wasn`t coming
    So instead they went for the bank
    
    The fateful duo that sat in the get-away car
    Heavily sedated with thousands of rounds
    Armor piercing, fully automatic weapons
    The bowls of wrath poured out on the ground
    
    [Chorus:]
    
    Baptized in a firefight
    Hot blood running cold as ice
    44 minutes of target practice
    All hell`s breaking loose
    Outgunned, watching "The Force" come to a firefight with a pocketknife
    Getting schooled until they shot Achilles` heel
    And brought down the beast!
    
    This was an accident waiting to happen
    It wasn`t if it would happen, it was when
    The city`s people sabotaged themselves
    Calling their firepower unneeded expense
    
    The two most violent men it seemed couldn`t be stopped
    Standard police issued guns were just not enough
    But SWAT arrived to settle the fight
    Between AK-47 and AR-15
    
    
    
    
    
    Tuning: Standard 
     
    Intro
    Guitar 1
    e|--------------------------|
    B|--------------------------|
    G|--------------------------|
    D|------5--/9--7~-----------|
    A|-/7~-------------9-(9)\-2-|
    E|--------------------------|
     
    e|---------------------|
    B|---------------------|
    G|---------------------|
    D|-----2--/5--4~-------|
    A|-3~-------------5--2-|
    E|---------------------|
     
    e|----------------------|
    B|----------------------|
    G|----------------------|
    D|------5--/9--7~-----9-|
    A|-/7~-------------9----|
    E|----------------------|
     
    e|-----------------|
    B|-----------------|
    G|-----------------|
    D|-9h10--9--7--9~--|
    A|-----------------|
    E|-----------------|
     
    Guitar 2
    e|-----------------------|
    B|-----------------------|
    G|---9~----/12-11~--9----|
    D|-9-------------------9-|
    A|-----------------------|
    E|-----------------------|
     
    e|---------------------|
    B|---------------------|
    G|-9~--------7~-----7--|
    D|---------------9-----|
    A|---------------------|
    E|---------------------|
     
    e|----------------------------------------|
    B|----------------------------------------|
    G|-9~----/12-11~------/14-12------/17-16~-|
    D|----------------12----------12----------|
    A|----------------------------------------|
    E|----------------------------------------|
     
    Guitar 3
    e|------------------------------|
    B|------------------------------|
    G|-9-9-9-9-9---------9-9-9-9-9--|
    D|-9-9-9-9-9---------9-9-9-9-9--|
    A|-7-7-7-7-7---------7-7-7-7-7--|
    E|------------------------------|
     
    e|------------------------------|
    B|------------------------------|
    G|-9-9-9-9-9---------9-9-9-9-9--|
    D|-9-9-9-9-9---------9-9-9-9-9--|
    A|-7-7-7-7-7---------7-7-7-7-7--|
    E|------------------------------|
     
     
    Lead into verse:
    Guitar 1
    e|-------------------------------------|
    B|-------------------------------------|
    G|-9-9-9-9-9----9-10--9-9-9-9-9----9-5-|
    D|-9-9-9-9-9----9-10--9-9-9-9-9----9-5-|
    A|-7-7-7-7-7----7--8--7-7-7-7-7----7-3-|
    E|-------------------------------------|
     
    Guitar 2
    e|------------------------------------|
    B|------------------------------------|
    G|------------------------------------|
    D|----------------3-------------------|
    A|-2-2-2-2-2------3--2-2-2-2-2------3-|
    E|-0-0-0-0-0----0-1--0-0-0-0-0----0-3-|
     
     
    Riff 1
    e|------------------------------------|
    B|------------------------------------|
    G|------------------------------------|
    D|----------------3-----------------5-|
    A|-2-2-2-2-2------3--2-2-2-2-2------5-|
    E|-0-0-0-0-0----0-1--0-0-0-0-0----0-3-|
     
    e|------------------------------------|
    B|------------------------------------|
    G|------------------------------------|
    D|----------------3-------------------|
    A|-2-2-2-2-2------3--2-2-2-2-2------5-|
    E|-0-0-0-0-0----0-1--0-0-0-0-0----0-5-|
     
    e|------------------------------------|
    B|------------------------------------|
    G|------------------------------------|
    D|----------------3-----------------5-|
    A|-2-2-2-2-2------3--2-2-2-2-2------5-|
    E|-0-0-0-0-0----0-1--0-0-0-0-0----0-3-|
     
    e|------------------------------------|
    B|------------------------------------|
    G|------------------------------------|
    D|----------------3-------------------|
    A|-2-2-2-2-2------3--2-2-2-2-2------3-|
    E|-0-0-0-0-0----0-1--0-0-0-0-0----0-3-|
     
     
    Riff 2
    Guitar 1
    e|--------------------------------------|
    B|--------------------------------------|
    G|-9-9-9-9-9----9-10--9-9-9-9-9----9-12-|
    D|-9-9-9-9-9----9-10--9-9-9-9-9----9-12-|
    A|-7-7-7-7-7----7--8--7-7-7-7-7----7-10-|
    E|--------------------------------------|
     
    e|-------------------------------------|
    B|-------------------------------------|
    G|-9-9-9-9-9----9-10--9-9-9-9-9----9-7-|
    D|-9-9-9-9-9----9-10--9-9-9-9-9----9-7-|
    A|-7-7-7-7-7----7--8--7-7-7-7-7----7-5-|
    E|-------------------------------------|
     
    e|--------------------------------------|
    B|--------------------------------------|
    G|-9-9-9-9-9----9-10--9-9-9-9-9----9-12-|
    D|-9-9-9-9-9----9-10--9-9-9-9-9----9-12-|
    A|-7-7-7-7-7----7--8--7-7-7-7-7----7-10-|
    E|--------------------------------------|
     
    e|----------------------------------------|
    B|----------------------------------------|
    G|-9-9-9-9-9----9-10--9-9-9-9-9-----------|
    D|-9-9-9-9-9----9-10--9-9-9-9-9-----------|
    A|-7-7-7-7-7----7--8--7-7-7-7-7-----------|
    E|-------------------------------X\-X\-X\-|
     
    Guitar 2
    e|------------------------------------|
    B|------------------------------------|
    G|------------------------------------|
    D|----------------3-----------------5-|
    A|-2-2-2-2-2------3--2-2-2-2-2------5-|
    E|-0-0-0-0-0----0-1--0-0-0-0-0----0-3-|
     
    e|------------------------------------|
    B|------------------------------------|
    G|------------------------------------|
    D|----------------3-------------------|
    A|-2-2-2-2-2------3--2-2-2-2-2------5-|
    E|-0-0-0-0-0----0-1--0-0-0-0-0----0-5-|
     
    e|------------------------------------|
    B|------------------------------------|
    G|------------------------------------|
    D|----------------3-----------------5-|
    A|-2-2-2-2-2------3--2-2-2-2-2------5-|
    E|-0-0-0-0-0----0-1--0-0-0-0-0----0-3-|
     
    e|---------------------------------------|
    B|---------------------------------------|
    G|---------------------------------------|
    D|----------------3----------------------|
    A|-2-2-2-2-2------3--2-2-2-2-2-----------|
    E|-0-0-0-0-0----0-1--0-0-0-0-0--X\-X\-X\-|
     
     
    Riff 3
    Guitar 1
    e|--------------------------|
    B|--------------------------|
    G|--------------------------|
    D|--------------------------|
    A|-2----5----5-----7--5--5--|
    E|-0----2----3-----5--3--2--|
     
    e|--------------------------------|
    B|--------------------------------|
    G|--------------------------------|
    D|--------------------------------|
    A|-2----5----5----9-9-9-9-9-9-9-9-|
    E|-0----2----3----7-7-7-7-7-7-7-7-|
                      * * * * * * * *
    e|--------------------------|
    B|--------------------------|
    G|--------------------------|
    D|--------------------------|
    A|-2----5----5-----7--5--5--|
    E|-0----2----3-----5--3--2--|
     
    e|---------------------------------|
    B|---------------------------------|
    G|---------------------------------|
    D|---------------------------------|
    A|-2----5----5----9-9-9-9-9-9-9-9\-|
    E|-0----2----3----7-7-7-7-7-7-7-7\-|
                      * * * * * * *
     
    Guitar 2
    e|--------------------------|
    B|--------------------------|
    G|--------------------------|
    D|------5--/9--7~-----------|
    A|-/7~-------------9-(9)\-2-|
    E|--------------------------|
     
    e|---------------------|
    B|---------------------|
    G|---------------------|
    D|-----2--/5--4~-------|
    A|-3~-------------5--2-|
    E|---------------------|
     
    e|----------------------|
    B|----------------------|
    G|----------------------|
    D|------5--/9--7~-----9-|
    A|-/7~-------------9----|
    E|----------------------|
     
    e|-----------------|
    B|-----------------|
    G|-----------------|
    D|-9h10--9--7--9~--|
    A|-----------------|
    E|-----------------|
     
    Guitar 3 (Comes in the 2nd time)
    e|-----------------------|
    B|-----------------------|
    G|---9~----/12-11~--9----|
    D|-9-------------------9-|
    A|-----------------------|
    E|-----------------------|
     
    e|---------------------|
    B|---------------------|
    G|-9~--------7~-----7--|
    D|---------------9-----|
    A|---------------------|
    E|---------------------|
     
    e|----------------------------------------|
    B|----------------------------------------|
    G|-9~----/12-11~------/14-12------/17-16~-|
    D|----------------12----------12----------|
    A|----------------------------------------|
    E|----------------------------------------|
     
     
    Riff 4 (Solo Rhythm)
    Guitar 1
    e|--------------------------------------|
    B|--------------------------------------|
    G|-9-9-9-9-9----9-10--9-9-9-9-9----9-12-|
    D|-9-9-9-9-9----9-10--9-9-9-9-9----9-12-|
    A|-7-7-7-7-7----7--8--7-7-7-7-7----7-10-|
    E|--------------------------------------|
     
    e|-------------------------------|
    B|-------------------------------|
    G|-9-9-9-9-9----9-10--9-9-9-9-9--|
    D|-9-9-9-9-9----9-10--9-9-9-9-9--|
    A|-7-7-7-7-7----7--8--7-7-7-7-7--|
    E|-------------------------------|
     
    Guitar 2
    e|------------------------------------|
    B|------------------------------------|
    G|------------------------------------|
    D|----------------3-----------------5-|
    A|-2-2-2-2-2------3--2-2-2-2-2------5-|
    E|-0-0-0-0-0----0-1--0-0-0-0-0----0-3-|
     
    e|------------------------------|
    B|------------------------------|
    G|------------------------------|
    D|----------------3-------------|
    A|-2-2-2-2-2------3--2-2-2-2-2--|
    E|-0-0-0-0-0----0-1--0-0-0-0-0--|
     
     
    Solo (Broderick)
    e|-20p17h19h20p19p17p16-19p16h17t22p19p17-19/22--20--19-|
    B|------------------------------------------------------|
    G|------------------------------------------------------|
    D|------------------------------------------------------|
    A|------------------------------------------------------|
    E|------------------------------------------------------|
     
    e|-17p13h16h17p16p13\12-16p12h13h16t19p16p12-16/19--17--16-|
    B|---------------------------------------------------------|
    G|---------------------------------------------------------|
    D|---------------------------------------------------------|
    A|---------------------------------------------------------|
    E|---------------------------------------------------------|
     
    e|-16p13p12----13p12---------------------------|
    B|----------16-------16-12-12b13-12~-----------|
    G|------------------------------------14b16r14-|
    D|---------------------------------------------|
    A|---------------------------------------------|
    E|---------------------------------------------|
     
    e|-------------------------|
    B|-------------------------|
    G|-13----------------------|
    D|----14-15-12-14----12----|
    A|----------------15----14-|
    E|-------------------------|
        *  *  *  *  *  *  *  *
    e|-----------------------|
    B|-----------------------|
    G|-13--------------------|
    D|----14-----------------|
    A|-------14-11-----------|
    E|--------------12[dive]-|
        *  *  *  *
     
    End Solo 
     
     
    Play Riff 1 
    Play Riff 2 
    Play Riff 3 
     
     
    Riff 5 (Solo Rhythm)
    e|-------------------------------|
    B|-------------------------------|
    G|-------------------------------|
    D|-----2-----0-2------5-----2-5--|
    A|-----2-----0-2------5-----2-5--|
    E|-0-0---0-0------0-0---0-0------|
       * *   * *      * *   * *
    e|---------------------------------|
    B|---------------------------------|
    G|---------------------------------|
    D|-----7-----5-7------10-----9-7-9-|
    A|-----7-----5-7------10-----9-7-9-|
    E|-0-0---0-0------0-0----0-0-------|
       * *   * *      * *    * *
     
    Final time:
    e|----------------------------------|
    B|----------------------------------|
    G|----------------------------------|
    D|-----7-----5-7--10-10-10-10-9-7-9-|
    A|-----7-----5-7--10-10-10-10-9-7-9-|
    E|-0-0---0-0------------------------|
       * *   * *
     
     
    Solo (Broderick)
    e|-------------------------------------|
    B|-------------------------------------|
    G|-9-4h9p4-------------------7-9-7---7-|
    D|---------7-------5-7/9-7-9-------9---|
    A|-----------7-5-7---------------------|
    E|-------------------------------------|
     
    e|----------------------------12-14p12----12/14-|
    B|------------7---7-8-8/12-13----------13-------|
    G|----------9---9-------------------------------|
    D|-/10-9-10-------------------------------------|
    A|----------------------------------------------|
    E|----------------------------------------------|
     
    e|-15h19p15p14----14h19t20p19p15-14h15----------|
    B|-------------17----------------------17~----0-|
    G|----------------------------------------------|
    D|----------------------------------------------|
    A|----------------------------------------------|
    E|----------------------------------------------|
     
    e|----------------------------------------------|
    B|-12\8-7h8p7-0-7b8~--/15\12-10h12p10----12b13~-|
    G|------------------------------------11--------|
    D|----------------------------------------------|
    A|----------------------------------------------|
    E|----------------------------------------------|
     
    e|-------14----------15p14----14-19-15-19----19-15----19---|
    B|----15----15----15-------15-------------15-------15----0-|
    G|-17----------17------------------------------------------|
    D|---------------------------------------------------------|
    A|---------------------------------------------------------|
    E|---------------------------------------------------------|
     
    e|-14h15h17p15p14------------|
    B|----------------17-13-12~--|
    G|---------------------------|
    D|---------------------------|
    A|---------------------------|
    E|---------------------------|
     
    e|-14-------14-(14)b15~-----/19-15-------------------|
    B|----15---------------------------17-19-20p19h20-17-|
    G|-------16--------------0---------------------------|
    D|---------------------------------------------------|
    A|---------------------------------------------------|
    E|---------------------------------------------------|
     
    e|-------------------------------------------|
    B|-19-15-17----15----------------------------|
    G|----------17----16-14-16b17r16b17r16b17r16-|
    D|-------------------------------------------|
    A|-------------------------------------------|
    E|-------------------------------------------|
     
    e|--------------------------------------------|
    B|-12b13r12b13--{t18}p12-(13)r12--t17-x-------|
    G|------------------------------------x-9/12~-|
    D|--------------------------------------------|
    A|--------------------------------------------|
    E|--------------------------------------------|
     
    e|-15----15\14----14\10---10/12---12\8---8/10---|
    B|----12-------10-------7-------8------5------7-|
    G|----------------------------------------------|
    D|----------------------------------------------|
    A|----------------------------------------------|
    E|----------------------------------------------|
     
    e|-10\7---7/8-0-7-0-7-0-8-0-7-0-7-0-|
    B|------3---------------------------|
    G|----------------------------------|
    D|----------------------------------|
    A|----------------------------------|
    E|----------------------------------|
     
    e|-12p8-----------------8/-14p11-------------------10-|
    B|-----10-------------10--------12---------------12---|
    G|-------9-----------9------------11-----------11-----|
    D|--------10-------10---------------13-------13-------|
    A|----------12-7h12-------------------14-9h14---------|
    E|----------------------------------------------------|
     
    e|-10--(10)dive--(10)dive-|
    B|------------------------|
    G|------------------------|
    D|------------------------|
    A|------------------------|
    E|------------------------|
     
    End Solo 
     
     
    Riff 6 (Solo Rhythm)
    e|---------------------------------|
    B|---------------------------------|
    G|---------------------------------|
    D|-1---0-0-000-000-1---0---0-1-0-3-|
    A|-1---0-0-000-000-1---0---0-1-0-3-|
    E|---0---------------0---0---------|
         *   * *** ***   *   * * * *
    e|---------------------------------|
    B|---------------------------------|
    G|---------------------------------|
    D|-1---0-0-000-000-1---0-0-3--3--3-|
    A|-1---0-0-000-000-1---0-0-3--3--3-|
    E|---0---------------0-------------|
         *   * *** ***   *   *
    e|---------------------------------|
    B|---------------------------------|
    G|---------------------------------|
    D|-1---0-0-000-000-1---0---0-1-0-3-|
    A|-1---0-0-000-000-1---0---0-1-0-3-|
    E|---0---------------0---0---------|
         *   * *** ***   *   * * * *
    e|---------------------------------|
    B|---------------------------------|
    G|---------------------------------|
    D|-1---0-0-000-000-1---0-0-3--2--5-|
    A|-1---0-0-000-000-1---0-0-3--2--5-|
    E|---0---------------0-------------|
         *   * *** ***   *   *
     
     
    Solo (Mustaine)
    e|-14p10----------10-14p10----------10-14p10----10-|
    B|-------13-10h13----------13-10h13----------13----|
    G|-------------------------------------------------|
    D|-------------------------------------------------|
    A|-------------------------------------------------|
    E|-------------------------------------------------|
     
    e|-17p10----------10-17p10----------10-17p10----10-|
    B|-------13-10h13----------13-10h13----------13----|
    G|-------------------------------------------------|
    D|-------------------------------------------------|
    A|-------------------------------------------------|
    E|-------------------------------------------------|
     
    e|-16p10----------10-16p10----------10-16p10----10-|
    B|-------13-10h13----------13-10h13----------13----|
    G|-------------------------------------------------|
    D|-------------------------------------------------|
    A|-------------------------------------------------|
    E|-------------------------------------------------|
     
    e|-15p10----------10-15p10----------10-15p10----10-|
    B|-------13-10h13----------13-10h13----------13----|
    G|-------------------------------------------------|
    D|-------------------------------------------------|
    A|-------------------------------------------------|
    E|-------------------------------------------------|
     
    e|-11tm--10tm-----------------------------------------|
    B|-------------13tm--11tm--10tr11--8tr10--7tr8--------|
    G|----------------------------------------------8tr10-|
    D|----------------------------------------------------|
    A|----------------------------------------------------|
    E|----------------------------------------------------|
     
    e|--------------------------------------|
    B|---------------------7h8p7---7-8-10-8-|
    G|-7h8p7-----------7-8-------8----------|
    D|-------10-8p7-------------------------|
    A|--------------10----------------------|
    E|--------------------------------------|
     
    e|-6-------------------------------------|
    B|---10-8-7-10-8-7---8-7-----7-----------|
    G|-----------------8-----8-7---8-7----9~-|
    D|---------------------------------10----|
    A|---------------------------------------|
    E|---------------------------------------|
     
    End Solo 
     
     
    Riff 7 (Solo Rhythm)
    e|---------------------------------|
    B|---------------------------------|
    G|---------------------------------|
    D|-3---2-2-222-222-3---2---2-3-2-5-|
    A|-3---2-2-222-222-3---2---2-3-2-5-|
    E|---0---------------0---0---------|
         *   * *** ***   *   * * * *
    e|---------------------------------|
    B|---------------------------------|
    G|---------------------------------|
    D|-3---2-2-222-222-3---2-2-5--5--5-|
    A|-3---2-2-222-222-3---2-2-5--5--5-|
    E|---0---------------0-------------|
         *   * *** ***   *   *
    e|---------------------------------|
    B|---------------------------------|
    G|---------------------------------|
    D|-3---2-2-222-222-3---2---2-3-2-5-|
    A|-3---2-2-222-222-3---2---2-3-2-5-|
    E|---0---------------0---0---------|
         *   * *** ***   *   * * * *
    Guitar 1
    e|-----------------------------------|
    B|-----------------------------------|
    G|-----------------------------------|
    D|-3---2-2-222-222-5--------7--5--10-|
    A|-3---2-2-222-222----5--4--5--3---8-|
    E|---0----------------3--2-----------|
         *   * *** *** *  *  *
    Guitar 2
    e|-----------------------------------|
    B|-----------------------------------|
    G|-----------------------------------|
    D|-3---2-2-222-222-5--------7--5--7--|
    A|-3---2-2-222-222----5--4-----------|
    E|---0----------------3--2-----------|
         *   * *** *** *  *  *
     
     
    Solo (Broderick)
    e|-------------------------------------------------|
    B|-------------------------------------------------|
    G|-------------12----------------------14----------|
    D|-14-------------14-------14-------------15-14-12-|
    A|----15-14-12-------15-12----15-14-12-------------|
    E|-------------------------------------------------|
        *  *  *  *  *  *  *  *  *  *  *  *  *  *  *  *
    e|-------------------------13-12-------------------|
    B|-------------15----------------15----------------|
    G|-13-------13----13----------------13-------13----|
    D|----14-15----------15-14-------------14-15----14-|
    A|-------------------------------------------------|
    E|-------------------------------------------------|
        *  *  *  *  *  *  *  *              *  *  *  *
    e|----------------------------------------------------|
    B|----------------------------------------12----------|
    G|-------------------------------------13----13-------|
    D|-14-15-12-14----12----------------14----------14----|
    A|-------------15----14-15-12----14----------------14-|
    E|----------------------------16----------------------|
        *  *  *  *  *  *  *  *  *  *  *  *  *
    e|-----------------------------13----------------13----|
    B|-18p13------13-17p13------13----15-17-13-15-17----15-|
    G|------14--14--------14--14---------------------------|
    D|--------14------------14-----------------------------|
    A|-----------------------------------------------------|
    E|-----------------------------------------------------|
     
    e|-17p13----------13-16~----17-13-16-|
    B|-------15----15--------------------|
    G|----------14-----------------------|
    D|-----------------------------------|
    A|-----------------------------------|
    E|-----------------------------------|
     
    e|-12-13-------12-----------------------------------|
    B|-------15h17----15b17r15--13-12-13----12----------|
    G|-----------------------------------14----14b16r14-|
    D|--------------------------------------------------|
    A|--------------------------------------------------|
    E|--------------------------------------------------|
     
    e|---------------|
    B|---------------|
    G|-13----13------|
    D|----15----14~--|
    A|---------------|
    E|---------------|
     
    e|------------------------------------------10-12/-|
    B|---------------------------------10-12-13--------|
    G|---------9---------------9-11-13-----------------|
    D|-9-10-12---12-10-9-10-12-------------------------|
    A|-------------------------------------------------|
    E|-------------------------------------------------|
     
    e|-19p16--------16-19/24~--|
    B|-------17--17------------|
    G|-------------------------|
    D|-------------------------|
    A|-------------------------|
    E|-------------------------|
     
    End Solo 
     
     
    Play Riff 3 
     
     
    Riff 8
    e|------------------------------------------|
    B|------------------------------------------|
    G|------------------------------------------|
    D|-------------------3--------------------5-|
    A|-5h7-----5h7-------3--5h7-----5h7-------5-|
    E|-----000-----000-0-1------000-----000-0-3-|
           ***     ***          ***     ***
    e|------------------------------------------|
    B|------------------------------------------|
    G|------------------------------------------|
    D|-------------------3----------------------|
    A|-5h7-----5h7-------3--5h7-----5h7-------5-|
    E|-----000-----000-0-1------000-----000-0-5-|
           ***     ***          ***     ***
     
    Guitar 1
    e|------------------------------------------|
    B|------------------------------------------|
    G|------------------------------------------|
    D|-------------------3--------------------5-|
    A|-5h7-----5h7-------3--5h7-----5h7-------5-|
    E|-----000-----000-0-1------000-----000-0-3-|
           ***     ***          ***     ***
    e|--------------------------------------------------|
    B|--------------------------------------------------|
    G|--------------------------------------------------|
    D|-----------------------3--------------------------|
    A|-12h14-----12h14-------3--12h14-----12h14-------3-|
    E|-------000-------000-0-1--------000-------000-0-3-|
             ***       ***            ***       ***
    Guitar 2
    e|----------------------------------------------|
    B|----------------------------------------------|
    G|----------------------------------------------|
    D|---------------------3----------------------5-|
    A|-9h10-----9h10-------3--9h10-----9h10-------5-|
    E|------000------000-0-1-------000------000-0-3-|
            ***      ***           ***      ***
    e|--------------------------------------------------|
    B|--------------------------------------------------|
    G|--------------------------------------------------|
    D|-12h14-----12h14-------3--12h14-----12h14---------|
    A|-----------------------3------------------------3-|
    E|-------000-------000-0-1--------000-------000-0-3-|
             ***       ***            ***       ***
     
     
    Riff 9 (Solo Rhythm)
    e|---------------------------------------------|
    B|---------------------------------------------|
    G|---------------------------------------------|
    D|---------------------------------------------|
    A|-5h7------5h7----------5h7------5h7----------|
    E|-----0000-----00000000-----0000-----00000000-|
           ****     ********     ****     ********
    e|---------------------------------------------|
    B|---------------------------------------------|
    G|---------------------------------------------|
    D|---------------------------------------------|
    A|-5h7------5h7----------5h7------5h7------10--|
    E|-----0000-----00000000-----0000-----0000--8--|
           ****     ********     ****     ****
    Guitar 1
    e|---------------------------------------------|
    B|---------------------------------------------|
    G|---------------------------------------------|
    D|---------------------------------------------|
    A|-5h7------5h7----------5h7------5h7----------|
    E|-----0000-----00000000-----0000-----00000000-|
           ****     ********     ****     ********
    e|-----------------------|
    B|-----------------------|
    G|-----------------------|
    D|-----------------------|
    A|-5h7------5h7----------|
    E|-----0000-----00000000-|
           ****     ********
    Guitar 2
    e|-------------------------------------------------|
    B|-------------------------------------------------|
    G|-------------------------------------------------|
    D|-------------------------------------------------|
    A|-9h10------9h10----------9h10------9h10----------|
    E|------0000------00000000------0000------00000000-|
            ****      ********      ****      ********
    e|-------------------------|
    B|-------------------------|
    G|-------------------------|
    D|-------------------------|
    A|-9h10------9h10----------|
    E|------0000------00000000-|
            ****      ********
     
    Both guitars:
    e|-----------------------------------------|
    B|-----------------------------------------|
    G|-----------------------------------------|
    D|-----------------------------------------|
    A|-----------------------------------------|
    E|-15-0-12-0-17-0-14-0-19-0-15-0-20-0-19-0-|
        * *  * *  * *  * *  * *  * *  * *  * *
     
    Guitar 1
    e|-------------------------------|
    B|-------------------------------|
    G|-9-9-9-9-9----9-10-------------|
    D|-9-9-9-9-9----9-10-------------|
    A|-7-7-7-7-7----7--8--2-2-2-2-2--|
    E|--------------------0-0-0-0-0--|
     
    Guitar 2
    e|------------------------------|
    B|------------------------------|
    G|------------------------------|
    D|----------------3-------------|
    A|-2-2-2-2-2------3--2-2-2-2-2--|
    E|-0-0-0-0-0----0-1--0-0-0-0-0--|
     
     
    Solo (Broderick)
    e|-12p7-------7-12p7-12-10-8----------------------|
    B|------8---8----------------12-10-8--------------|
    G|--------9--------------------------11-9---------|
    D|----------------------------------------10-9----|
    A|---------------------------------------------10-|
    E|------------------------------------------------|
     
    e|-12p7-------7h8h10p8/-15-14-12-------------------------------------|
    B|------8---8--------------------15-13-12----------------------------|
    G|--------9-------------------------------14-12-11-------------------|
    D|-------------------------------------------------14-12-10----------|
    A|----------------------------------------------------------14-12-10-|
    E|-------------------------------------------------------------------|
     
    e|-12p8---------8-12p8-12-10-8-----------------------|
    B|------10---10----------------12-10-8---------------|
    G|---------9---------------------------11-9-7--------|
    D|--------------------------------------------10-9-7-|
    A|---------------------------------------------------|
    E|---------------------------------------------------|
     
    e|-12p8-----8h10h12p10/-17-15-14-------------------------------------|
    B|-----10-10---------------------17-15-13----------------------------|
    G|-------9--------------------------------16-14-12-------------------|
    D|-------------------------------------------------16-14-12----------|
    A|----------------------------------------------------------15-14-12-|
    E|-------------------------------------------------------------------|
     
    e|-14p10---------10-14p10-15-14-12----------------------------|
    B|-------12----12------------------15-13-12-------------------|
    G|----------11------------------------------14-12-11----------|
    D|---------------------------------------------------14-12-10-|
    A|------------------------------------------------------------|
    E|------------------------------------------------------------|
     
    e|-14p10------10h12h14-12/14h17t19p17p15p14-|
    B|------12--12------------------------------|
    G|--------11--------------------------------|
    D|------------------------------------------|
    A|------------------------------------------|
    E|------------------------------------------|
     
    e|-------------------------------------|
    B|-17-15-13----------------------------|
    G|----------16-14-12-------------------|
    D|-------------------16-14-12----------|
    A|----------------------------15-14-12-|
    E|-------------------------------------|
     
    e|-17p12----------12-17p12-15-14-12----------------------------|
    B|-------13----13-------------------15-13-12-------------------|
    G|----------14-------------------------------14-12-11----------|
    D|----------------------------------------------------14-12-10-|
    A|-------------------------------------------------------------|
    E|-------------------------------------------------------------|
     
    e|-19p14--------------------14h15h17p15p14-|
    B|------15----------------15---------------|
    G|--------16------------16-----------------|
    D|----------16--------16-------------------|
    A|------------18-14h18---------------------|
    E|-----------------------------------------|
     
    e|---------------------------------------|
    B|-17-15-13------------------------------|
    G|----------16-14-12---------------------|
    D|-------------------16-14-12----12-14~--|
    A|----------------------------14---------|
    E|---------------------------------------|
     
    

    Тональность:

    Нет текста!



    Назад
    Рекомендуем посмотреть другие песни исполнителя «Megadeth»:

    • Комментарии Facebook ()
    • Комментарии ВКонтакте



    Добавить в Избранное Браузера
    Сохранить здесь Очистить


    x

    0


    +
    -

    +
    -

    -

    Авторизация





    Зарегистрироваться

    M

    Дата и время

    • 12:05:12
       

    Социальные ссылки


    Наши приложения

    • Muzbank App Play Market
    • Muzbank Amazon App