MUZBANK



A Most Complete Bank Of Music Information

МУЗЫКАЛЬНО-ИНФОРМАЦИОННЫЙ БАНК

Поиск по сайту







    MMegadeth • Addicted To Chaos (аккорды и текст - chords & lyrics)


    289

    Print

    Видео «Addicted To Chaos (Megadeth)»

    Видео клипы к песне подбираются автоматически сайтом youtube. Возможны некоторые несоответствия клипов песне.

    ↑ Спрятать рекламу ↑



    Download


    Only yesterday they told me you were gone
    All these normal people will I find another one?
    Monkey on my back, aching in my bones
    I forgot you said "One day you'll walk alone"
    I said I need you, does that make me wrong?
    Am I a weak man, are you feeling strong?
    My heart was blackened, it's bloody red
    A hole in my heart, a hole in my head?
    
    Who will help me up?
    Where's the helping hand?
    Will you turn on me?
    Is this my final stand?
    
    In a dream I connot see
    Tangled abstract fallacy
    Random turmoil builds in me
    I'm addicted to chaos
    
    Light shined on my path,
    Turn bad days into good
    Turn breakdowns into blocks, I smashed 'em
    Cause I could
    My brain was labored, my head would spin
    Don't let me down, don't give up, don't give in
    The rain comes down, cold wind blows
    The plans we made are back up on the road
    Turn up my collar, welcome the unknown
    Remember that you said
    "One day you'll walk alone"
    
    
     Gtrs I, II
                     PM--|           PM      PM--|           PM
      Wx4          E E E E S S S S S S E   E E E E S S S S S S E
    |------------|-----------------------|-----------------------|
    |------------|-----------------------|-----------------------|
    |------------|-----------------------|-----------------------|
    |------------|-5-------------------5-|-4-------------------5-|
    |------------|-7-----------5h7-------|-5-----------5h7-------|
    |------------|---0-0-0-5h7-------0---|---0-0-0-5h7-------0---|
    
    
        PM--|           PM      PM--|           PM
      E E E E S S S S S S E   E E E E S S S S S S E
    |-----------------------|-------------------------||
    |-----------------------|-------------------------||
    |-----------------------|-------------------------||
    |-5-------------------5-|-7-------------------5---||
    |-4-----------5h7-------|-5-----------5h7---------||
    |---0-0-0-5h7-------0---|---0-0-0-5h7-------0-----||
    
    
       Verse
          PM--|           PM      PM--|           PM
        E E E E S S S S S S E   E E E E S S S S S S E
    ||------------------------|-----------------------|
    ||o-----------------------|-----------------------|
    ||------------------------|-----------------------|
    ||--5-------------------5-|-4-------------------5-|
    ||o-7-----------5h7-------|-5-----------5h7-------|
    ||----0-0-0-5h7-------0---|---0-0-0-5h7-------0---|
    
    
        PM--|           PM      PM--|           PM
      E E E E S S S S S S E   E E E E S S S S S S E
    |-----------------------|--------------------------|
    |-----------------------|--------------------------|
    |-----------------------|--------------------------|
    |-5-------------------5-|-7-------------------5----|
    |-4-----------5h7-------|-5-----------5h7----------|
    |---0-0-0-5h7-------0---|---0-0-0-5h7-------0------|
    
    
        PM--|           PM      PM--|           PM
      E E E E S S S S S S E   E E E E S S S S S S E
    |-----------------------|-----------------------|
    |-----------------------|-----------------------|
    |-----------------------|-----------------------|
    |-5-------------------5-|-4-------------------5-|
    |-7-----------5h7-------|-5-----------5h7-------|
    |---0-0-0-5h7-------0---|---0-0-0-5h7-------0---|
    
    
        PM--|           PM      PM--|           PM
      E E E E S S S S S S E   E E E E S S S S S S E
    |-----------------------|-----------------------|
    |-----------------------|-----------------------|
    |-----------------------|-----------------------|
    |-5-------------------5-|-7-------------------5-|
    |-4-----------5h7-------|-5-----------5h7-------|
    |---0-0-0-5h7-------0---|---0-0-0-5h7-------0---|
    
    
        PM--|           PM      PM--|           PM
      E E E E S S S S S S E   E E E E S S S S S S E
    |-----------------------|-----------------------|
    |-----------------------|-----------------------|
    |-----------------------|-----------------------|
    |-5-------------------5-|-4-------------------5-|
    |-7-----------5h7-------|-5-----------5h7-------|
    |---0-0-0-5h7-------0---|---0-0-0-5h7-------0---|
    |
    | Gtr III
    | W                       W
    |-----------------------|-----------------------|
    |-8---------------------|-7---------------------|
    |-----------------------|-----------------------|
    |-5---------------------|-4---------------------|
    |-----------------------|-----------------------|
    |-----------------------|-----------------------|
    
    
        PM--|           PM        PM--|           PM
      E E E E S S S S S S E    E  E E E S S S S S S E
    |-----------------------|-------------------------|
    |-----------------------|-------------------------|
    |-----------------------|-------------------------|
    |-5-------------------5-|--7--------------------5-|
    |-4-----------5h7-------|--5------------5h7-------|
    |---0-0-0-5h7-------0---|-----0-0-0-5h7-------0---|
    |
    | W                       +W
    |-----------------------|-------------------------|
    |-5---------------------|-(5)---------------------|
    |-----------------------|-------------------------|
    |-2---------------------|-(2)---------------------|
    |-----------------------|-------------------------|
    |-----------------------|-------------------------|
    
    
         PM--|           PM       PM--|           PM
       E E E E S S S S S S E    E E E E S S S S S S E
    |------------------------|------------------------|
    |------------------------|------------------------|
    |------------------------|------------------------|
    |--5-------------------5-|--4-------------------5-|
    |--7-----------5h7-------|--5-----------5h7-------|
    |----0-0-0-5h7-------0---|----0-0-0-5h7-------0---|
    |
    |  W                        W
    |------------------------|------------------------|
    |-12---------------------|-10---------------------|
    |------------------------|------------------------|
    |--9---------------------|--7---------------------|
    |------------------------|------------------------|
    |------------------------|------------------------|
    
    
        PM--|           PM
      E E E E S S S S S S E    H     Q  Q
    |-----------------------|--------------||
    |-----------------------|--------------||
    |-----------------------|--------------||
    |-5-------------------5-|--5-----2--4--||
    |-4-----------5h7-------|--3-----0--2--||
    |---0-0-0-5h7-------0---|--------------||
    |
    | W                       +W
    |-----------------------|--------------||
    |-8---------------------|-(8)----------||
    |-----------------------|--------------||
    |-5---------------------|-(5)----------||
    |-----------------------|--------------||
    |-----------------------|--------------||
    
    
     Pre-Chorus
      $
      Gtrs I, II
       E. S         +E   E E. S +E            E
    |---------------------------------------------------|
    |---------------------------------------------------|
    |-----4---------(4)-------7-(7)---------------------|
    |--------------------5-7------------------7---------|
    |--7--2---------(2)-------5-(5)---------------------|
    |--0-----------------3-2------------------2---------|
    |  E. S         +E   E E. S +E            E
    |
    | Gtr IV
    |                ~~~~~
    |                            |-------3--------|
    |  Q     a      +H           E     +E        +E
    |-22----22b24==(22)r--------22b24r(22)b24r==(22)b24-|
    |---------------------------------------------------|
    |---------------------------------------------------|
    |---------------------------------------------------|
    |---------------------------------------------------|
    |---------------------------------------------------|
    
    
              E.  S +E  E E. S +E  E       E. S +E  E E. S +E  E   E. S +E  E Q  Q
    |------------------------------------|-----------------------|-------------------|
    |------------------------------------|-----------------------|---------------8\--|
    |-------------4-(4)------5-(5)-------|----4-(4)------7-(7)---|----4-(4)------9\--|
    |---------5---------5----------4-----|----------5-7--------7-|-5--------5-2------|
    |-------------2-(2)---7--7-(7)-------|-7--2-(2)------5-(5)---|----2-(2)---7------|
    |---------3---------3-5--------3h5p3-|-0--------3-2--------2-|-3--------3--------|
    |         E.  S +E  E E. S +E  S S S   E. S +E  E E. S +E  E   E. S +E  E H
    |                              |-3-|
    |
    |  a     +Q      Q    H                W                       W
    |-22b24-(22)\------------------------|-----------------------|-------------------|
    |------------------------------------|-----------------------|-------------------|
    |------------------------------------|-----------------------|-------------------|
    |------------------------------------|-----------------------|-------------------|
    |------------------------------------|-----------------------|-------------------|
    |------------------------------------|-----------------------|-------------------|
    
    
      Gtrs I, II
      E. S +E  E E. S +E  E   E. S +E  E E. S +E  E       E. S +E  E E. S +E  E
    |-----------------------|---------------------------|-----------------------|
    |-----------------------|---------------------------|-----------------------|
    |----4-(4)------7-(7)---|----4-(4)------5-(5)-------|----4-(4)------7-(7)---|
    |----------5-7--------7-|-5--------5----------4-----|----------5-7--------7-|
    |-7--2-(2)------5-(5)---|----2-(2)---7--7-(7)-------|-7--2-(2)------5-(5)---|
    |-0--------3-2--------2-|-3--------3-5--------3h5p3-|-0--------3-2--------2-|
      E. S +E  E E. S +E  E   E. S +E  E E. S +E  S S S   E. S +E  E E. S +E  E
                                                  |-3-|
    
    
                                            To Coda
      C5                                        A5 B5
      Gtr II
      W                                 H       Q  Q
      |                                 |       |  |
      /                                 /       /  /
    
      Gtr I
          PM----|   PM----|   PM----|     PM--|
      S S S S S S S S S S S S S S S S   E E E E Q  Q
    |---------------------------------|---------------||
    |---------------------------------|---------------||
    |---------------------------------|---------------||
    |-2-0-------2-0-------2-0---------|-5-------2--4--||
    |-----3-2-0-----3-2-0-----3-2-0---|-3-3-3-3-0--2--||
    |-------------------------------3-|---------------||
    
    
     Chorus
      A5                               F5            G5
      Gtr II
      H             +Q.          S S   H              Q.          S S
      |              |           | |   |              |           | |
      /              /           x x   /              /           x x
    
      Gtr I
                     ~~~                              ~~~
      E.  S  +E   E  E.  S  +E   E     E.  S  +E   E  E.  S  +E   E
    |--------------------------------|--------------------------------|
    |--------------------------------|--------------------------------|
    |-------------7--6---------------|-------------5--4---------------|
    |-----5--(5)---------7--(7)--5---|-----3--(3)---------5--(5)--3---|
    |-0------------------------------|-0------------------------------|
    |--------------------------------|--------------------------------|
    |
    | Gtr III
    |                ~~~                              ~~~
    | E.  S  +E   E  E.  S  +E   E     E.  S  +E   E  E.  S  +E   E
    |--------------------------------|--------------------------------|
    |--------------------------------|--------------------------------|
    |------------19-18---------------|------------17-16---------------|
    |----17-(17)--------19-(19)-17---|----15-(15)--------17-(17)-15---|
    |-0------------------------------|-0------------------------------|
    |--------------------------------|--------------------------------|
    
    
      A5                               F5            G5
      H             +Q.          S S   H              Q.          S S
      |              |           | |   |              |           | |
      /              /           x x   /              /           x x
    
                     ~~~                              ~~~
      E.  S  +E   E  E.  S  +E   E     E.  S  +E   E  E.  S  +E   E
    |--------------------------------|--------------------------------|
    |--------------------------------|--------------------------------|
    |-------------7--6---------------|-------------5--4---------------|
    |-----5--(5)---------7--(7)--5---|-----3--(3)---------5--(5)--3---|
    |-0------------------------------|-0------------------------------|
    |--------------------------------|--------------------------------|
    |
    |                ~~~                              ~~~
    | E.  S  +E   E  E.  S  +E   E     E.  S  +E   E  E.  S  +E   E
    |--------------------------------|--------------------------------|
    |--------------------------------|--------------------------------|
    |------------19-18---------------|------------17-16---------------|
    |----17-(17)--------19-(19)-17---|----15-(15)--------17-(17)-15---|
    |-0------------------------------|-0------------------------------|
    |--------------------------------|--------------------------------|
    
    
      A5                               F5            G5
      H             +Q.          S S   H              Q.          S S
      |              |           | |   |              |           | |
      /              /           x x   /              /           x x
    
                     ~~~                              ~~~
      E.  S  +E   E  E.  S  +E   E     E.  S  +E   E  E.  S  +E   E
    |--------------------------------|--------------------------------|
    |--------------------------------|--------------------------------|
    |-------------7--6---------------|-------------5--4---------------|
    |-----5--(5)---------7--(7)--5---|-----3--(3)---------5--(5)--3---|
    |-0------------------------------|-0------------------------------|
    |--------------------------------|--------------------------------|
    |
    |                ~~~                              ~~~
    | E.  S  +E   E  E.  S  +E   E     E.  S  +E   E  E.  S  +E   E
    |--------------------------------|--------------------------------|
    |--------------------------------|--------------------------------|
    |------------19-18---------------|------------17-16---------------|
    |----17-(17)--------19-(19)-17---|----15-(15)--------17-(17)-15---|
    |-0------------------------------|-0------------------------------|
    |--------------------------------|--------------------------------|
    
    
                                     1.
      W                               W                               W
                     ~~~                             ~~~                                 PM
      E.  S  +E   E  E.  S  +E   E    E.  S  +E   E  E.  S  +E   E    E  E E E S S S S S S E
    |------------------------------|-------------------------------|--------------------------|
    |------------------------------|-------------------------------|--------------------------|
    |-------------4--5---4--(4)----|-------------------------------|--------------------------|
    |-----2--(2)-----------------5-|--3---2--(2)-------------------|-----------------------5--|
    |-0----------------------------|--------------3--2-------------|---------------5h7--------|
    |------------------------------|---------------------3--(3)--1-|--7\-0-0-0-5h7-------0----|
    |
    |                ~~~                             ~~~
    | E.  S  +E   E  E.  S  +E   E    E.  S  +E   E  E.  S  +E   E    Q    Q   H
    |------------------------------|-------------------------------|--------------------------|
    |------------------------------|-------------------------------|--------------------------|
    |------------16-17--16-(16)----|-------------------------------|--------------------------|
    |----14-(14)----------------17-|-15--14-(14)-------------------|--------------------------|
    |-0----------------------------|-------------15-14-------------|--------------------------|
    |------------------------------|--------------------15-(15)-13-|-15\----------------------|
    
    
      Gtr IV
                                                 ~~
      H       Q       E.     S   E.    S  +E   E E.     S  +E     E
    |--------------------------|------------------------------------|
    |--------------------------|------------------------------------|
    |------------------------x-|-9----11-(11)-12-9-----11-(11)---12-|
    |--------------------------|------------------------------------|
    |--------------------------|------------------------------------|
    |--------------------------|------------------------------------|
    |
    | Gtrs I, II
    |   PM--|            PM         PM--------|                PM
    | E E E E S S S S S  S E     E  E      E   E S S S  S   S  S  E
    |--------------------------|------------------------------------|
    |--------------------------|------------------------------------|
    |--------------------------|------------------------------------|
    |-4--------------------5---|-5--------------------------------5-|
    |-5-----------5h7----------|-4-------------------5h=7-----------|
    |---0-0-0-5h7--------0-----|----0------0---0-5h7-----------0----|
    
    
               ~~~~
       E      +Q.      +E      S  S  S  S  S  S
    |---------------------------------------------||
    |--------------------------------------------o||
    |-12b14==(12)-----(12)r---11-12-11------------||
    |----------------------------------12---------||
    |-------------------------------------12-14--o||
    |---------------------------------------------||
    |
    |          PM---|                   PM
    |  E       E  E E   S   S  S  S  S  S  E
    |---------------------------------------------||
    |--------------------------------------------o||
    |---------------------------------------------||
    |--7-----------------------------------5------||
    |--5-----------------------5h=7--------------o||
    |----------0--0-0---5h==7-----------0---------||
    
    
                                                Guitar Solo
      2.
      Gtr IV
       H              S  S  S  S  S   S  S  S     H              +Q       +S   S  S  S
    |-----------------------------------------||---------------------------------------|
    |-----------------------------------------||---------------------------------------|
    |-----------------------------------------||---------------------------------------|
    |--------------------------------------12-||-14-------------(14)-----(14)-15-14s12-|
    |----------------------------12--14-15----||---------------------------------------|
    |-------------------12-13-15--------------||---------------------------------------|
    |
    | Gtrs I, II
    |                                                 PM------|      PM-------------|
    |  E.  S  +E   E  H                           S S S S S S E  +E  S S   S   S  S  S
    |-----------------------------------------||---------------------------------------|
    |-----------------------------------------||---------------------------------------|
    |-----------------------------------------||---------------------------------------|
    |--3---2--(2)-----------------------------||---------------------------------------|
    |--------------3--5-----------------------||--5h7-7-5-7-8-7--(7)-7-5---------------|
    |-----------------------------------------||---------------------------7---6--5--3-|
    |
    | Gtr III
    |  E.  S  +E   E  Q           Q               W
    |-----------------------------------------||---------------------------------------|
    |-----------------------------------------||---------------------------------------|
    |-----------------------------------------||---------------------------------------|
    |-15--14-(14)-----------------------------||---------------------------------------|
    |-------------15-17----------17\----------||---------------------------------------|
    |-----------------------------------------||---------------------------------------|
    
    
          ~~~~~~~~~~~~
                            |----------3----------|
       S  E.      +Q        Q     Q         S. S. S
    |------------------------------------------------|
    |------------------------------------------------|
    |---------------------/14----13------------------|
    |-12s14------(14)----------------------15h18p15s=|
    |------------------------------------------------|
    |------------------------------------------------|
    |
    |        PM-------|
    |  S  S  S S   S  S E  +E  S    S S E.
    |------------------------------------------------|
    |------------------------------------------------|
    |------------------------------------------------|
    |------------------------------------------------|
    |-----------------------------------5------------|
    |--3h=5--5-3---5--6-5--(5)-x----x-x-3------------|
    |
    |  W
    |------------------------------------------------|
    |------------------------------------------------|
    |------------------------------------------------|
    |------------------------------------------------|
    |------------------------------------------------|
    |------------------------------------------------|
    
    

    Тональность:

    Нет текста!



    Назад
    Рекомендуем посмотреть другие песни исполнителя «Megadeth»:

    • Комментарии Facebook ()
    • Комментарии ВКонтакте



    Добавить в Избранное Браузера
    Сохранить здесь Очистить


    x

    0


    +
    -

    +
    -

    -

    Авторизация





    Зарегистрироваться

    M

    Дата и время

    • 05:21:32
       

    Социальные ссылки


    Наши приложения

    • Muzbank App Play Market
    • Muzbank Amazon App