MUZBANK



A Most Complete Bank Of Music Information

МУЗЫКАЛЬНО-ИНФОРМАЦИОННЫЙ БАНК

Поиск по сайту







    MMegadeth • Almost Honest (аккорды и текст - chords & lyrics)


    225

    Print

    Видео «Almost Honest (Megadeth)»

    Видео клипы к песне подбираются автоматически сайтом youtube. Возможны некоторые несоответствия клипов песне.

    ↑ Спрятать рекламу ↑



    Download


    
    I lied just a little
    When I said I need you
    You stretched the truth
    When you said that you knew
    Just can't believe it
    There's nothing to say
    I was almost honest, almost
    
    Living alone, can't stand this place
    It's four in the morning, and I still see your face
    
    I was nearly pure
    When I said I loved you
    You were semi-sincere
    You said I'd bleed for you
    We were kind of candid
    Now you've gone away
    You were almost honest, almost
    
    Living alone, falling from grace
    I want to atone, but there's just empty space
    I can't face tomorrow, now you're not coming back
    Walked off in the night, and just left me the tracks
    
    I question your call by the tone of your voice
    I know I shoud hang up, but I don't have a choice
    It happened that night when you told me to go
    Don't ask who's to blame, I don't know
    
    Almost, almost honest
    Almost, I was almost honest
    
    Intro                  x4
    e|----------------------|
    B|----------------------|
    G|----------------------|
    D|------2-------0-2-----|
    A|----2-------2---0--2--|
    E|-0------2-3--------0--|
    
    e|---------------|
    B|---------------|
    G|---------------|
    D|-2-----7--9----|
    A|-0--2--5--7--2-|
    E|----0--------0-|
    
    
    
    Riff 1 
    e|----------------------|
    B|----------------------|
    G|----------------------|
    D|------2-------0-2-----|
    A|----2-------2---0--2--|
    E|-0------2-3--------0--|
       "...knew..."
    
    
    Riff 2
    e|---------------------|
    B|---------------------|
    G|---------------------|
    D|-2-------2-----7--8--|
    A|-0--2----0--2--5--6--|
    E|----0-------0--5--6--|
       "...honest..."
    e|-----------------------------------|
    B|-----------------------------------|
    G|-----------------------------------|
    D|-----------------------------------|
    A|-----------------------------------|
    E|-7~--7-5-6-7-7-5-6-7-7-5-6-7--6--5-|
             * *     * *     * * 
       "...almost..."
    
    Guitar fill over Riff 2
    e|-----------------------------------------/7--7--(7)\-|
    B|-----------------4--(4)\---/7--7--(7)\---/7--7--(7)\-|
    G|-4----4----------4--(4)\---/8--8--(8)\---------------|
    D|-x----x--x-x-x-x-------------------------------------|
    A|-2----2--x-x-x-x-------------------------------------|
    E|-----------------------------------------------------|
    
    
    Riff 3
    Guitar 1
    e|-------------------------------------|
    B|-------------------------------------|
    G|-------------------------------------|
    D|--------2---------------2--2---------|
    A|-2-2----0--------2-2----0--0---------|
    E|-0-0-------------0-0----------2--3-2-|
        "Living alone..."
    
    Guitar 2 (Clean)
    e|---------------------------------|
    B|---5-----5-----2---2-------3-----|
    G|-----4-----4-----2---2-------2---|
    D|-2-----2-----2---------2h4-----4-|
    A|---------------------------------|
    E|---------------------------------|
    
    e|---------------------------------|
    B|---5-----5-----2---2-------2-----|
    G|-----4-----4-----2---2-----------|
    D|-2-----2-----2---------2h4---4-2-|
    A|---------------------------------|
    E|---------------------------------|
    
    
    
    Riff 1a
    e|-------------------------------|
    B|-------------------------------|
    G|-------------------------------|
    D|------2-------0-2--------------|
    A|----2-------2---0--2-----------|
    E|-0------2-3--------0-0-0-0-0-0-|
                           * * * * *
                          "I was nearly pure..."
    
    Guitar fill over Riff 1a (Comes in the 5th time)
    e|------------------------------|
    B|------------------------------|
    G|--9\7--7--7\-------9\7--7--7\-|
    D|--x----x--x--------x----x--x--|
    A|--7\5--5--5\-------7\5--5--5\-|
    E|------------------------------|
    
    
    Riff 2a
    e|----------------------------|
    B|----------------------------|
    G|----------------------------|
    D|-2--------------2-----7--8--|
    A|-0--2-----------0--2--5--6--|
    E|----0-0-0-0-0-0----0--5--6--|
            * * * * * 
       "...honest..."
    e|-----------------------------------|
    B|-----------------------------------|
    G|-----------------------------------|
    D|-----------------------------------|
    A|-----------------------------------|
    E|-7~--7-5-6-7-7-5-6-7-7-5-6-7--6--5-|
             * *     * *     * * 
       "...almost..."
    
    Guitar fill over Riff 2
    e|-----------------------------------------/7--7--(7)\-|
    B|-----------------4--(4)\---/7--7--(7)\---/7--7--(7)\-|
    G|-4----4----------4--(4)\---/8--8--(8)\---------------|
    D|-x----x--x-x-x-x-------------------------------------|
    A|-2----2--x-x-x-x-------------------------------------|
    E|-----------------------------------------------------|
    
    
    
    Play Riff 3   "Living alone..."
    
    Final time for Riff 3, guitar 1 plays:
    e|-----------------------------------------|
    B|-----------------------------------------|
    G|-----------------------------------------|
    D|--------2---------------2--2-------------|
    A|-2-2----0--------2-2----0--0-----------2-|
    E|-0-0-------------0-0----------2--3-2-0-0-|
       "...and just left me..."
    
    
    
    Riff 4
    Guitar 1 (Clean)
    e|---0-----0-----0-----0-----0-----0-|
    B|-----5-----5-----------4-----4-----|
    G|-4-----4-----4----4------4-----4---|
    D|-----------------------------------|
    A|-----------------------------------|
    E|-----------------------------------|
       "I question your..."
    e|---0-----0-----0-----0-----0-----0-|
    B|-----3-----3-----------2-----2-----|
    G|-2-----2-----2----2------2-----2---|
    D|-----------------------------------|
    A|-----------------------------------|
    E|-----------------------------------|
       "...tone of your voice..."
    e|---0-----0-----0-----0-----0-----0-|
    B|-----1-----1-----------3-----3-----|
    G|-0-----0-----0----2------2-----2---|
    D|-----------------------------------|
    A|-----------------------------------|
    E|-----------------------------------|
       "I know I should..."
    e|---0-----0------5-----4---4-----4-|
    B|-----5-----5------5-----5---5-----|
    G|-4-----4-----4------4---------4---|
    D|----------------------------------|
    A|----------------------------------|
    E|----------------------------------|
       "...don't have a choice..."
    e|---0-----0-----0-----0-----0-----0-|
    B|-----5-----5-----------4-----4-----|
    G|-4-----4-----4----4------4-----4---|
    D|-----------------------------------|
    A|-----------------------------------|
    E|-----------------------------------|
       "It happened that night..."
    e|---0-----0-----0-----0-----0-----0-|
    B|-----3-----3-----------2-----2-----|
    G|-2-----2-----2----2------2-----2---|
    D|-----------------------------------|
    A|-----------------------------------|
    E|-----------------------------------|
       "...told me to go..."
    e|---0-----0-----0-----0-----0-----0-|
    B|-----1-----1-----------3-----3-----|
    G|-0-----0-----0----2------2-----2---|
    D|-----------------------------------|
    A|-----------------------------------|
    E|-----------------------------------|
       "Don't ask who's..."
    
    Guitar 2 (Distortion)
    e|----------------------------------|
    B|----------------------------------|
    G|----------------------------------|
    D|-99-9----9--9-9---77-7----7--7-7--|
    A|-77-7----6--6-6---55-5----4--4-4--|
    E|----------------------------------|
       "It happened that night..."
    e|-----------------|
    B|-----------------|
    G|-----------------|
    D|-55-5----7--7-7--|
    A|-33-3----5--5-5--|
    E|-----------------|
       "Don't ask who's..."
    
    Guitar 3 (Distortion)
    e|----------------------|
    B|----------------------|
    G|-10b12--(12)r10-9~~~--|
    D|----------------------|
    A|----------------------|
    E|----------------------|
            "Don't ask..."
    
    
    Riff 1b (Solo Rhythm)           x8
    e|-------------------------------|
    B|-------------------------------|
    G|-------------------------------|
    D|------2-------0-2--------------|
    A|----2-------2---0--2-----------|
    E|-0------2-3--------0-0-0-0-0-0-|
                           * * * * *
    e|-----------------------------------|
    B|-----------------------------------|
    G|-----------------------------------|
    D|-----------------------------------|
    A|-----------------------------------|
    E|-7~--7-5-6-7-7-5-6-7-7-5-6-7--6--5-|
             * *     * *     * * 
    

    Тональность:

    Нет текста!



    Назад
    Рекомендуем посмотреть другие песни исполнителя «Megadeth»:

    • Комментарии Facebook ()
    • Комментарии ВКонтакте



    Добавить в Избранное Браузера
    Сохранить здесь Очистить


    x

    0


    +
    -

    +
    -

    -

    Авторизация





    Зарегистрироваться

    M

    Дата и время

    • 13:46:34
       

    Социальные ссылки


    Наши приложения

    • Muzbank App Play Market
    • Muzbank Amazon App