MUZBANK



A Most Complete Bank Of Music Information

МУЗЫКАЛЬНО-ИНФОРМАЦИОННЫЙ БАНК

Поиск по сайту







    MMegadeth • Blood Of Heroes (аккорды и текст - chords & lyrics)


    447

    Print

    Видео «Blood Of Heroes (Megadeth)»

    Видео клипы к песне подбираются автоматически сайтом youtube. Возможны некоторые несоответствия клипов песне.

    ↑ Спрятать рекламу ↑



    Download


    Walking stiff let me tell ya
    Better left for dead
    And now we are on a mission
    Well it's full speed ahead
    My legion's when we do the crime
    Let's get one thing straight
    To get there early is on time
    And showing up on time is late
    
    Ladies and gents, we're still alive
    By the skin of our teeth, now it's killing time
    Angel in our pocket, devil by our side
    We ain't going nowhere cause' heroes never die
    
    Still alive
    Blood of heroes
    Never die
    They never die
    
    We've been run down every hill
    Chased up all the dead end streets
    But if you try to cut us out
    You'll get a kick in the teeth
    
    Ladies and gents we're still alive
    By the skin of our teeth, now it's killing time
    Fasten up your head belts,
    Time to ride the skies
    It's time to be immortal, 'cause heroes never die
    
    
    
    Eb Tuning
    
    Intro:
    ------ (w.Fill 1 4th time) 
    Acoustic (Let Ring) Play 4x 
    eb---||-----------------------------|--------------------------------||
    Bb---||------------0----------------|------------0-----------0-------||
    Gb---||--------5-------5------------|--------5-------5-----------5---||
    Db---||----7---------------7--------|----7---------------7-----------||
    Ab---||0----------------------------|0-------------------------------||
    Eb---||-----------------------------|--------------------------------||
    
    
    Fill 1:
    -------
    
    (Guitar 1)-----------------------|
    |--------------------------------|
    |--------------------------------|
    |------------------------5-------|
    |------------------------3-------|
    |--------------------------------|
    
    Play 2x
    ||--------------------------------|--------------------------------||
    ||--------------------------------|--------------------------------||
    ||------------------------------0-|--------------------------------||
    ||2-------5-----7---------------0-|2-------5-----7-----------7-----||
    ||0-------3-x-x-5-x-x-x-3-x-x-x---|0-------3-x-x-5-x-x-x-3-x-5-x---||
    ||----3-0---x-x---x-x-x-1-x-x-x---|----3-0---x-x---x-x-x-1-x---x-3-||
    . . . . .
    
    
    Verse1:
    -------
    Play 4x
    ||--------------------------------|--------------------------------||
    ||--------------------------------|--------------------------------||
    ||------------------------------0-|--------------------------------||
    ||2-------5-----7---------------0-|2-------5-----7-----------7-----||
    ||0-------3-x-x-5-x-x-x-3-x-x-x---|0-------3-x-x-5-x-x-x-3-x-5-x---||
    ||----3-0---x-x---x-x-x-1-x-x-x---|----3-0---x-x---x-x-x-1-x---x-3-||
    . . . . .
    
    
    Chorus:
    -------
    Play 2x
    |(Guitar 1)-----------------------|--------------------------------||
    ||--------------------------------|--------5-3---------------------||
    ||--------------------------------|2---4-5------5p2----------------||
    ||2-------2---------------2-------|0-----------------------2-------||
    ||0---2-3---3-2-0-3---2-3---3-2-0-|----------------2-----2---5-3-2-||
    ||----------------1---------------|----------------0---4-----------||
    || | ||
    |(Guitar 2)-----------------------|--------------------------------||
    ||--------------------------------|--------8-6---------------------||
    ||--------------------------------|2---7-9------9p5----------------||
    ||2-------2---------------2-------|0-----------------------2-------||
    ||0---2-3---3-2-0-3---2-3---3-2-0-|----------------2-----2---5-3-2-||
    ||----------------1---------------|----------------0---4-----------||
    
    
    Interlude:
    ----------
    
    |--------------------------------|
    |--------------------------------|
    |--------------------------------|
    |--------------------------------|
    |3-------5-------6-x-------------|
    |1-------3-------4-x-------------|
    | |
    |--------------------------------|
    |------------------h-p---------10|
    |10~~~~~~12~~~~~~9-109---9-1012--|
    |----------------------12--------|
    |--------------------------------|
    |--------------------------------|
    
    Play 2x
    ||--------------------------------|--------------------------------||
    ||--------------------------------|--------------------------------||
    ||------------------------------0-|--------------------------------||
    ||2-------5-----7---------------0-|2-------5-----7-----------7-----||
    ||0-------3-x-x-5-x-x-x-3-x-x-x---|0-------3-x-x-5-x-x-x-3-x-5-x---||
    ||----3-0---x-x---x-x-x-1-x-x-x---|----3-0---x-x---x-x-x-1-x---x-3-||
    . . . . .
    
    
    Verse 2:
    -------
    Play 2x
    ||--------------------------------|--------------------------------||
    ||--------------------------------|--------------------------------||
    ||------------------------------0-|--------------------------------||
    ||2-------5-----7---------------0-|2-------5-----7-----------7-----||
    ||0-------3-x-x-5-x-x-x-3-x-x-x---|0-------3-x-x-5-x-x-x-3-x-5-x---||
    ||----3-0---x-x---x-x-x-1-x-x-x---|----3-0---x-x---x-x-x-1-x---x-3-||
    . . . . .
    
    
    Chorus:
    -------
    Play 2x
    |(Guitar 1)-----------------------|--------------------------------||
    ||--------------------------------|--------5-3---------------------||
    ||--------------------------------|2---4-5------5p2----------------||
    ||2-------2---------------2-------|0-----------------------2-------||
    ||0---2-3---3-2-0-3---2-3---3-2-0-|----------------2-----2---5-3-2-||
    ||----------------1---------------|----------------0---4-----------||
    || | ||
    |(Guitar 2)-----------------------|--------------------------------||
    ||--------------------------------|--------8-6---------------------||
    ||--------------------------------|2---7-9------9p5----------------||
    ||2-------2---------------2-------|0-----------------------2-------||
    ||0---2-3---3-2-0-3---2-3---3-2-0-|----------------2-----2---5-3-2-||
    ||----------------1---------------|----------------0---4-----------||
    
    
    Lead Solo: (Get your Wah`s Out, here`s the rhythm!)
    ----------
    Play 8x
    ||--------------------------------||----------------|
    ||--------------------------------||----------------|
    ||--------------------------------||----------------|
    ||2-3-2---------------------------||9-109-----------|
    ||0-1-0---x-5---3-2-3-2---x-3---5-||7-8-7-----------|
    ||--------x-3---1-0-1-0---x-1---3-||----------------|
    . . . .
    
    Play 3x
    ||----------------||----------------|
    ||----------------||----------------|
    ||----------------||----------------|
    ||----------------||----------------|
    ||2-3-2-----------||2---------------|
    ||0-1-0-----------||0---------------|
    
    
    Interlude:
    ----------
    Play 2x
    ||--------------------------------|--------------------------------||
    ||--------------------------------|--------------------------------||
    ||------------------------------0-|--------------------------------||
    ||2-------5-----7---------------0-|2-------5-----7-----------7-----||
    ||0-------3-x-x-5-x-x-x-3-x-x-x---|0-------3-x-x-5-x-x-x-3-x-5-x---||
    ||----3-0---x-x---x-x-x-1-x-x-x---|----3-0---x-x---x-x-x-1-x---x-3-||
    . . . . .
    
    Play 4x
    ||--------------------------------||
    ||--------3-----------------------||
    ||--------2-----4-----------------||
    ||4-------0-----2---------------5-||
    ||2---------------4-5-4-x-x-4-x-3-||
    ||----5-2---5-2---2-3-2-x-x-2-x---||
    . . . .
    
    Play 2x
    ||--------------------------------|--------------------------------||
    ||--------------------------------|--------------------------------||
    ||------------------------------0-|--------------------------------||
    ||2-------5-----7---------------0-|2-------5-----7-----------7-----||
    ||0-------3-x-x-5-x-x-x-3-x-x-x---|0-------3-x-x-5-x-x-x-3-x-5-x---||
    ||----3-0---x-x---x-x-x-1-x-x-x---|----3-0---x-x---x-x-x-1-x---x-3-||
    . . . . .
    
    |--------------------------------|
    |--------------------------------|
    |--------------------------------|
    |--------------------------------|
    |3--------5--------6-x-xx-x-7---|
    |1--------3--------4-x-xx-x-5---|
    
    

    Тональность:

    Нет текста!



    Назад
    Рекомендуем посмотреть другие песни исполнителя «Megadeth»:

    • Комментарии Facebook ()
    • Комментарии ВКонтакте



    Добавить в Избранное Браузера
    Сохранить здесь Очистить


    x

    0


    +
    -

    +
    -

    -

    Авторизация





    Зарегистрироваться

    M

    Дата и время

    • 11:33:42
       

    Социальные ссылки


    Наши приложения

    • Muzbank App Play Market
    • Muzbank Amazon App