MUZBANK



A Most Complete Bank Of Music Information

МУЗЫКАЛЬНО-ИНФОРМАЦИОННЫЙ БАНК

Поиск по сайту







    MMegadeth • Breadline (аккорды и текст - chords & lyrics)


    301

    Print

    Видео «Breadline (Megadeth)»

    Видео клипы к песне подбираются автоматически сайтом youtube. Возможны некоторые несоответствия клипов песне.

    ↑ Спрятать рекламу ↑



    Download


    Ain`t got no job
    Ain`t got no smoke
    Ain`t got a car
    His life`s a joke
    
    Living on the skids
    Thinks the world`s just fine
    Forgot what he did
    Dancing on the breadline
    
    No one there to bind him
    Nothing to remind him
    Nowhere left to find him
    
    About to lose his lifeline
    He`s dancing on the breadline
    
    Forgot who he is
    Forgot who he was
    Used to call the shots
    Now he can`t connect the dots
    
    A mover and shaker
    Getting closer to his maker
    Lower than a hemline
    Dancing on the breadline
    
    No one there to bind him
    Nothing to remind him
    Nowhere left to find him
    
    About to lose his lifeline
    He`s looking for a headline
    Sniffing up the white lines
    He`s dancing on the breadline
    
    Watch him dance
    
    About to lose his lifeline
    He`s looking for a headline
    Sniffing up the white lines
    He`s dancing on the breadline
    About to lose his lifeline
    He`s dancing on the breadline
    
    No one, nothing, nowhere
    Dancing on the breadline
    
    He forgot and he ain`t got nothing
    
    
    
    
    
    
    
     
    E-------------|----------------|--------------|-----------------|
    B-------------|----------------|--------------|-----------------|
    G-----2-----1-|----1-----------|-----0--------|-----0---2-0-----|
    D---2-----2---|-2~---2~--4-2---|---2-----2-4~-|---2---2-----2-0-|
    A-------------|--------------2-|--------------|-----------------|
    E-0-----0-----|----------------|-0-----0------|-0---------------|
                                                          (Repeat 4x)
    
    
     
      E      G      A      C        E     G      A
    E----------------------------||----------------------------------
    B----------------------------||----------------------------------
    G-------------------2------5-||--------------2-------------------
    D-----2------5----2------5---||-----2-----5--2-------------------
    A---2------5----0------3-----||---2-----5----0-------------------
    E-0------3-------------------||-0-----3--------------------------
                       (Repeat 3x)
    
     
      E          B     A      A E A E D A   A   E   E
    E-----0---------------------------------4---4-----0--------------
    B-----0-------------------5-5-5-5-3-----5---5-----0--------------
    G-----x------4-----2------6-4-6-4-2-2---6---4-----x--------------
    D-2---2------4-----2------7-6-7-6-4-2---7---6---2-2--------------
    A-2----------2-----0----------------0-----------2----------------
    E-0---------------------------------------------0----------------
     
    

    Тональность:

    Нет текста!



    Назад
    Рекомендуем посмотреть другие песни исполнителя «Megadeth»:

    • Комментарии Facebook ()
    • Комментарии ВКонтакте



    Добавить в Избранное Браузера
    Сохранить здесь Очистить


    x

    0


    +
    -

    +
    -

    -

    Авторизация





    Зарегистрироваться

    M

    Дата и время

    • 17:45:10
       

    Социальные ссылки


    Наши приложения

    • Muzbank App Play Market
    • Muzbank Amazon App