MUZBANK



A Most Complete Bank Of Music Information

МУЗЫКАЛЬНО-ИНФОРМАЦИОННЫЙ БАНК

Поиск по сайту







    MMegadeth • Breakpoint (аккорды и текст - chords & lyrics)


    208

    Print

    Видео «Breakpoint (Megadeth)»

    Видео клипы к песне подбираются автоматически сайтом youtube. Возможны некоторые несоответствия клипов песне.

    ↑ Спрятать рекламу ↑



    Download


     
    
    
    Breakpoint
    Transcibed by Christopher Heer
    Standard Tuning
    
    Intro
    --------------------
    --------------------
    --------------------
    ---------4----------  7x
    ---------4----------
    --2-2222-2---0-4200-
    
    -----------------
    -----------------
    -----------------
    -------4-2-4-----
    -------4-2-4-----
    -2-222-2-0-2-----
    
    Verse
    --------------------
    --------------------
    --------------------
    ---------4----------	
    ---------4----------
    --2-2222-2---0-4320-
    
    Pre-chorus
    ------------------------------------
    ------------------------------------
    ------------------------------------
    ---------------2--------------------
    -----4-----5-4---5-2-----4-4-2-4----
    ------------------------4-4---------
    --02----03------------02------------
    
    Chorus(1st part)
    ------------------
    ------------------
    ------------------
    --5---8-----------
    --3-5-6-8---6-5---
    ----3---6---4-3---
    
    Chorus(2nd part)
    ----------------
    ----------------
    ----------------
    --5---8---------
    --3-5-6-8-------
    ----3---6-------
     

    Тональность:

    Нет текста!



    Назад
    Рекомендуем посмотреть другие песни исполнителя «Megadeth»:

    • Комментарии Facebook ()
    • Комментарии ВКонтакте



    Добавить в Избранное Браузера
    Сохранить здесь Очистить


    x

    0


    +
    -

    +
    -

    -

    Авторизация





    Зарегистрироваться

    M

    Дата и время

    • 21:24:27
       

    Социальные ссылки


    Наши приложения

    • Muzbank App Play Market
    • Muzbank Amazon App