MUZBANK



A Most Complete Bank Of Music Information

МУЗЫКАЛЬНО-ИНФОРМАЦИОННЫЙ БАНК

Поиск по сайту







    MMegadeth • Crush `Em (аккорды и текст - chords & lyrics)


    325

    Print

    Видео «Crush `Em (Megadeth)»

    Видео клипы к песне подбираются автоматически сайтом youtube. Возможны некоторые несоответствия клипов песне.

    ↑ Спрятать рекламу ↑



    Download


    Tune 1/2 step down....
    
         Verse 1
        
    
              |->Let Ring
    eb-||-12--12------------------------------|| Play 3x
    Bb-||-14--14---------------------16-------||
    Gb-||-14--14-----------12-12-14--16--14~--||
    Db-||------------------12-12-14------14~--||
    Ab-||-------------------------------------||
    Eb-||-------------------------------------||
                           .. .. 
            
    eb-||-12--12--12--12--------------------|| Play Last Time
    Bb-||-14--14--14--14--16-16-16--14------||
    Gb-||-14--14--14--14--16-16-16--14--16--||
    Db-||-------------------------------16--||
    Ab-||-----------------------------------||
    Eb-||-----------------------------------||
                          .. ..
    
              
         Bridge
         ------
    eb-||---------------------------------------------------|| Play 2x
    Bb-||---------------------------------------------------||
    Gb-||---------------------------------------------------||
    Db-||--7-7-----5--7-7-----5--7-7-----5--7-7-----5-------||
    Ab-||------5h7--------5h7--------5h7--------5h7---------||
    Eb-||---------------------------------------------------||
    
    
             
    eb-||----------------------------------------------------------|| Play 2x
    Bb-||----------------------------------------------------------||
    Gb-||----------------------------------------------------------||
    Db-||--10-10------8--10-10------8--10-10------8--10-10------8--||
    Ab-||--------8h10----------8h10----------8h10----------8h10----||
    Eb-||----------------------------------------------------------||
    
         Ref
    eb-||--------------------------------------||
    Bb-||--------------------------------------||
    Gb-||------3-------5---8---10-------3------||
    Db-||--5---3---5---5---8---10---5---3---4--||
    Ab-||--5---1---5---3---6---8----5---1---4--||
    Eb-||--3-------3----------------3-------2--||
    
         Verse 2
          |->Let Ring
    eb-||-12--12------------------------------|| Play 2x
    Bb-||-14--14---------------------16-------||
    Gb-||-14--14-----------12-12-14--16--14~--||
    Db-||------------------12-12-14------14~--||
    Ab-||-------------------------------------||
    Eb-||-------------------------------------||
    
         Bridge
         ------
    eb-||---------------------------------------------------|| Play 2x
    Bb-||---------------------------------------------------||
    Gb-||---------------------------------------------------||
    Db-||--7-7-----5--7-7-----5--7-7-----5--7-7-----5-------||
    Ab-||------5h7--------5h7--------5h7--------5h7---------||
    Eb-||---------------------------------------------------||
    
             
    eb-||----------------------------------------------------------|| Play 2x
    Bb-||----------------------------------------------------------||
    Gb-||----------------------------------------------------------||
    Db-||--10-10------8--10-10------8--10-10------8--10-10------8--||
    Ab-||--------8h10----------8h10----------8h10----------8h10----||
    Eb-||----------------------------------------------------------||
    
         Ref 2
         -----
    eb-||---------------------------------|------------------------------------||
    Bb-||---------------------------------|------------------------------------||
    Gb-||------3-------5---8---10-------3-|-----3-------5---8---10-------3-----||
    Db-||--5---3---5---5---8---10---5---3-|-5---3---5---5---8---10---5---3---4-||
    Ab-||--5---1---5---3---6---8----5---1-|-5---1---5---3---6---8----5---1---4-||
    Eb-||--3-------3----------------3-----|-3-------3----------------3-------2-||
    
    
        
        Bridge 2
               Crush..Crush..Crush..
    eb-||------------------------------------------||
    Bb-||------------------------------------------||
    Gb-||------------------4-------------------4---||
    Db-||--4--4--7---4--4--4---4--4--7---4--4--4---||
    Ab-||--4--4--7---4--4--2---4--4--7---4--4--2---||
    Eb-||--2--2--5---2--2------2--2--5---2--2------||
    
    
    eb-||-----------------------------------------|| Play 2x
    Bb-||-----------------------------------------||
    Gb-||----------------4-----------------4-(6)--||
    Db-||--4-4--7---4-4--4---4-4--7---4-4--4-(6)--||
    Ab-||--4-4--7---4-4--2---4-4--7---4-4--2-(4)--||
    Eb-||--2-2--5---2-2------2-2--5---2-2---------||
    
      
         Ref 3
    eb-||-----------------------------------|-----------------------------------||
    Bb-||-----------------------------------|-----------------------------------||
    Gb-||------4-------6---9----------(4)-6-|-----4-------6---9----------(4)-6--||
    Db-||--6---4---6---6---9---4---6--(4)-6-|-6---4---6---6---9---4---6--(4)-6--||
    Ab-||--6---2---6---4---7---4---6--(2)-4-|-6---2---6---4---7---4---6--(2)-4--||
    Eb-||--4-------4-----------2---4--------|-4-------4-----------2---4---------||
       
        Outro: "Crush...Crush Em.."
    eb-||---------------------------------------|| 
    Bb-||---------------------------------------|| 
    Gb-||-------4--------6--------4--------4-6--|| 
    Db-||--6-6--4---6-6--6---6-6--4---6-6--2-4--|| 
    Ab-||--6-6--2---6-6--4---6-6--2---6-6-------|| 
    Eb-||--4-4------4-4------4-4------4-4-------|| 
    
    ТЕКСТ:
    
    Enter the arena and hit the lights
    Step up now you`re in for a ride
    This is war, ain`t no fun and games
    We get it up, you go down in flames
    
    Party time, going down
    You better not mess us around
    The stakes are rich, take a hit or stay
    The price is high, someone`s gonna pay
    
    Heads I win, tails you lose
    Out of my way I`m coming through
    Roll the dice don`t think twice
    And we crush (crush), crush `em (crush `em)
    
    Looking for trouble, now you`ve found it
    You`re a drum and we`re gonna pound it
    
    Last one standing wins the fight
    Hear us scream and shout all night
    Down on the floor and eat the grit
    This is gonna hurt a little bit
    
    Heads I win, tails you lose
    Out of my way I`m coming through
    Roll the dice don`t think twice
    And we crush (crush), crush `em (crush `em)
    
    Now we lay you down to rest
    You`ll never be more than second best
    Step inside you`re in for a ride
    And we crush (crush), crush `em (crush `em)
    
    Don`t need reason, don`t want names
    Just a John Doe to put to shame
    Step aside let me explain
    The name of the game is pain
    
    Now we`ve found you
    We`re gonna pound you
    We`re gonna beat you
    Gonna defeat you
    We`re gonna bust you
    We`re gonna crush you
    We`re gonna crush `em
    
    Heads I win, tails you lose
    Out of my way I`m coming through
    Roll the dice don`t think twice
    And we crush (crush), crush `em (crush `em)
    
    Now we lay you down to rest
    You`ll never ever be more than second best
    Step inside you`re in for a ride
    And we crush (crush), crush `em (crush `em)
    

    Тональность:

    Нет текста!



    Назад
    Рекомендуем посмотреть другие песни исполнителя «Megadeth»:

    • Комментарии Facebook ()
    • Комментарии ВКонтакте



    Добавить в Избранное Браузера
    Сохранить здесь Очистить


    x

    0


    +
    -

    +
    -

    -

    Авторизация





    Зарегистрироваться

    M

    Дата и время

    • 13:08:23
       

    Социальные ссылки


    Наши приложения

    • Muzbank App Play Market
    • Muzbank Amazon App