MUZBANK



A Most Complete Bank Of Music Information

МУЗЫКАЛЬНО-ИНФОРМАЦИОННЫЙ БАНК

Поиск по сайту







    MMegadeth • Disconnect (аккорды и текст - chords & lyrics)


    262

    Print

    Видео «Disconnect (Megadeth)»

    Видео клипы к песне подбираются автоматически сайтом youtube. Возможны некоторые несоответствия клипов песне.

    ↑ Спрятать рекламу ↑



    Download


    
    Behind closed doors all you live for is taking
    That double life of yours has left your whole world shaking
    Who are you fooling? I know you hear the laughter
    Don't you hear people talking? What is it that your after? 
    
    Turn off your conscience
    Leave the world outside
    Nothing at all can ever make you feel
    That anything's so real so you just – Disconnect 
    
    The key to save yourself if for nothing else
    A tongue can never hold the truth of silence is golden
    With a broken heart underneath all of the pain
    Do you stroke the pretty scars? The hurt never ends 
    
    Turn off your conscience
    Leave the world outside
    Nothing at all can ever make you feel
    That anything's so real so you just – Disconnect 
    
    Turn off your conscience
    Leave the world outside
    Nothing at all can ever make you feel
    That anything's so real so you just – Disconnect 
    
    Turn off your conscience
    Leave the world outside
    Nothing at all can ever make you feel
    That anything's so real so you just – Disconnect
    
    INTRO:
    |-------------------------------------|
    |-------------------------------------|
    |-------------------------------------|
    |-----5-------4------2----------------|
    |---7-------5------3~--------6--9--10-|
    |-0-------0------0-----0-/7-----------|
     p.m     p.m    p.m   p.m
    
    |-------------------------------------|
    |-------------------------------------|
    |-------------------------------------|
    |-----5-------4------2----------------|
    |---7-------5------3~--------6--9--10-|
    |-0-------0------0-----0-/7-----------|
     p.m      p.m   p.m   p.m
    
    |-------------------------------------|
    |-------------------------------------|
    |-------------------------------------|
    |-----5-------4------2----------------|
    |---7-------5------3~-----------------|
    |-0-------0------0-----0-/7-6-5-3-----|
     p.m      p.m   p.m   p.m
    
    
    This riff is used throughout the verses
    VERSES:                              x3
    |-------------------------------------|
    |-------------------------------------|
    |-------------------------------------|
    |-------------------------------------|
    |----9-5-7----9-5-7--------10-9-------|
    |-00-------00-------00-7-8------------|
      p.m      p.m     p.m
    |-------------------------------------|
    |-------------------------------------|
    |-------------------------------------|
    |-------------------------------------|
    |----9-5-7----9-5-7-----------10------|
    |-00-------00-------00-7---8----------|
     p.m      p.m      p.m
    
    
    |------------------------------|--------------------------------|
    |------------------------------|--------------------------------|
    |-2----------------------------|-2------------------------------|
    |-2----------------------------|-2------------------------------|
    |-0--3p0-0-5p0-0-3p0-0-5p0-6p0-|-0--3p0-0-5p0-0-3p0-0-6p0-5p0-2-|
    |------------------------------|------------------------------0-|
    
    
    Dont play the very first open E the first time.
    The E5 chord at the end off the last bar carries it.
    
    CHORUS                               x3
    |-------------------------------------|
    |-------------------------------------|
    |-------------------------------------|
    |-----5------4------2-----------------|
    |---7------5------3~--------6--9--10--|
    |-0------0------0-----0-/7------------|
     p.m    p.m    p.m   p.m
    
    |-------------------------------------|
    |-------------------------------------|
    |-------------------------------------|
    |-----5-----4-----2-------------------|
    |---7-----5-----3~----/6-5-4---2------|
    |-0-----0-----0-----00/7-6-5---0------|
     p.m   p.m   p.m   p.m         *
    

    Тональность:

    Нет текста!



    Назад
    Рекомендуем посмотреть другие песни исполнителя «Megadeth»:

    • Комментарии Facebook ()
    • Комментарии ВКонтакте



    Добавить в Избранное Браузера
    Сохранить здесь Очистить


    x

    0


    +
    -

    +
    -

    -

    Авторизация





    Зарегистрироваться

    M

    Дата и время

    • 22:27:53
       

    Социальные ссылки


    Наши приложения

    • Muzbank App Play Market
    • Muzbank Amazon App