MUZBANK



A Most Complete Bank Of Music Information

МУЗЫКАЛЬНО-ИНФОРМАЦИОННЫЙ БАНК

Поиск по сайту







    MMegadeth • Family Tree (аккорды и текст - chords & lyrics)


    548

    Print

    Видео «Family Tree (Megadeth)»

    Видео клипы к песне подбираются автоматически сайтом youtube. Возможны некоторые несоответствия клипов песне.

    ↑ Спрятать рекламу ↑



    Download


    Forgotten things remembered
    The tigers eat their young
    The body stayed but inside the head
    The mind was on the run
    A conspiracy of silence
    The only way out of pain
    Is turn around, run through it man
    Too wet to come in from the rain,
    Tell them...
    
    I know they were doing it to you
    But don't try doing it to me
    
    Let me show you, how I love you
    It's our secret, you and me
    But keep it in the family tree
    The secret of the family tree
    
    When you hear them saying "Trust me"
    Don't wait to see what's next
    Thrown to the wolves
    Forever trusting
    Raised in a form of living hell
    Sing a one note song of rage
    live and die within your heart
    So beware in the shadows
    
    Your family tree waits in the dark
    I say...
    
        Gtrs I, II
         E. S +E  E +Q.   E    E. S +E  E +Q.   E
    ||------------0-(0)------|----------0-(0)------|
    ||o----------------------|---------------------|
    ||------9-(9)------------|----7-(7)------------|
    ||--/9----------------9\-|-7----------------7\-|
    ||o----------------------|---------------------|
    ||-----------------------|---------------------|
    
    
                            1.                      2.
      E. S +E  E +Q.   E    E. S +E  E +Q.   E      E. S +E  E +Q.   E
    |----------0-(0)------|----------0-(0)-------||----------0-(0)-------|
    |---------------------|---------------------o||----------------------|
    |----5-(5)------------|----7-(7)-------------||----7-(7)-------------|
    |-5----------------5/-|-7----------------7/--||-7----------------7\--|
    |---------------------|---------------------o||----------------------|
    |---------------------|----------------------||----------------------|
    
    
                                            PM|
      E. S +E  E +H        Q.   E +E      E E E
    |----------0-(0)----|-^0--------------------|
    |-------------------|-^0--------------------|
    |----4-(4)----------|-^4--------------------|
    |-4-----------------|-^4----5-(5)b5.5-2-----|
    |-------------------|-----------------------|
    |-------------------|-------------------3-2-|
    
    
      W          +W           +W           +H.      +E  E
    |----------|------------|------------|-----------------||
    |----------|------------|------------|-----------------||
    |----------|------------|------------|-----------------||
    |-2--------|-(2)--------|-(2)--------|-(2)------(2)-x--||
    |-2--------|-(2)--------|-(2)--------|-(2)------(2)-x--||
    |-0--------|-(0)--------|-(0)--------|-(0)------(0)-x--||
    
    
       Verse
        W          +W           +W           Wx5
    ||-----------|------------|------------|--------|
    ||o----------|------------|------------|--------|
    ||-----------|------------|------------|--------|
    ||--2--------|-(2)--------|-(2)--------|--------|
    ||o-2--------|-(2)--------|-(2)--------|--------|
    ||--0--------|-(0)--------|-(0)--------|--------|
    
    
                                 PM    ~          PM                   PM     ~~
      E E E E E  E E E   E a E E E E E Q    E E E E E  E E E   E a E E E E E  Q
    |------------------|------------------|------------------|-------------------|
    |------------------|------------------|------------------|-------------------|
    |------------4-----|------------------|------------4-----|----------------4--|
    |---5-5---7------5-|---5h7-5---7---5--|---7-5---7------5-|---5h7-5---7-------|
    |---7-7---9-10---7-|---7h9-7-7-9---7--|---9-7-7-9-10---7-|---7h9-7-7-9---10--|
    |------------------|---------8--------|-------8----------|---------8---------|
    
    
            PM                   PM    ~          PM                 PM    ~
      E E E E E  E E E   E a E E E E E Q    E E E E E  E E E   E E E E E E Q
    |------------------|------------------|------------------|-----------------||
    |------------------|------------------|------------------|-----------------||
    |------------4-----|------------------|------------4-----|-----------------||
    |---5-5---7------5-|---5h7-5---7---5--|---7-5---7------5-|---5-4---5---4---||
    |---7-7-7-9-10---7-|---7h9-7-7-9---7--|---9-7-7-9-10---7-|---7-6-7-7---6---||
    |-------8----------|---------8--------|-------8----------|-------7---------||
    
    

    Тональность:

    Нет текста!



    Назад
    Рекомендуем посмотреть другие песни исполнителя «Megadeth»:

    • Комментарии Facebook ()
    • Комментарии ВКонтакте



    Добавить в Избранное Браузера
    Сохранить здесь Очистить


    x

    0


    +
    -

    +
    -

    -

    Авторизация





    Зарегистрироваться

    M

    Дата и время

    • 14:58:57
       

    Социальные ссылки


    Наши приложения

    • Muzbank App Play Market
    • Muzbank Amazon App