MUZBANK



A Most Complete Bank Of Music Information

МУЗЫКАЛЬНО-ИНФОРМАЦИОННЫЙ БАНК

Поиск по сайту







    MMegadeth • Guns, Drugs & Money (аккорды и текст - chords & lyrics)


    380

    Print

    Видео «Guns, Drugs & Money (Megadeth)»

    Видео клипы к песне подбираются автоматически сайтом youtube. Возможны некоторые несоответствия клипов песне.

    ↑ Спрятать рекламу ↑



    Download


    Drinking cold cerveza in a boiling hot saloon
    Chasing shots of tequila, just about high noon
    Outside Nuevo Laredo, deep in no man's land
    Become a killer or be killed; face down in the Rio Grande
    
    Poverty will turn the life of any good man bad
    All love and mercy ever learned, he'll soon forget what he had
    
    Guns, drugs, and money under the Mexican sky
    Guns, drugs, and money; pick your poison or you die
    Guns, drugs, and money; a pistol pressed to his head
    Choose silver and you're rich; you gonna die if you choose lead
    
    He had a suitcase full of money, plenty of ammo for his gun
    The sweat rolls down his dirty face, his plans have all come undone
    It's just a matter of time, no matter how he tries
    He hears "Plata O Plomo, Gringo?" the last words before he dies
    
    
    
    Guitar tab:
    
    [Intro]
    E||---------------------------|--------------------------------|
    B||---------------------------|--------------------------------|
    G||---------------------------|--------------------------------|
    D||---------------------------|--------------------------------|
    A||----------------------2----|--5---------7----8----3----2----|
    E||----------------------0----|--3----0----5----6----1----0----|
    
    
                
    |--------------------------------|
    |--------------------------------|
    |--------------------------------|
    |--------------------------------|
    |--5---------7----8----3----2----|
    |--3----0----5----6----1----0----|
    
     
    
    [Verse / Chorus] 
    |--------------------------|--------------------------|--------------------------|
    |--------------------------|--------------------------|--------------------------|
    |--------------------------|--------------------------|--------------------------|
    |--2-----------------------|--3-----------------------|--4-----------------------|
    |-----------------0--1--2--|-----------------0--1--2--|-----------------0--1--2--|
    |-----0-----3--------------|-----0-----3--------------|-----0-----3--------------|
    
    
    --------------------------|--------------------------|
    --------------------------|--------------------------|
    --------------------------|--------------------------|
    --5-----------------------|--2-----------------------|
    -----------------0--1--2--|-----------------0--1--2--|
    -----0-----3--------------|-----0-----3--------------|
    
    
    
    --------------------------|--------------------------|
    --------------------------|--------------------------|
    --------------------------|--------------------------|
    --3-----------------------|--4-----------------------|
    -----------------0--1--2--|-----------------0--1--2--|
    -----0-----3--------------|-----0-----3--------------|
    
    
    --------------------------------|--------------------------|
    --------------------------------|--------------------------|
    --------------------------------|--------------------------|
    --------------------------------|--2-----------------------|
    --8----8----8----8----7----5----|-----------------0--1--2--|
    --6----6----6----6----5----3----|-----0-----3--------------|
    
    
    [Bridge pre-chorus]
    
    --------------------------------------------|------------------------------------------|
    --------------------------------------------|------------------------------------------|
    --------------------------------------------|------------------------------------------|
    --------------------------------------------|------------------------------------------|
    --------------------------------------------|------------------------------------------|
    -----3--2--1--0-----3--2--1--0--3--2--1--0--|---3--2--1--0-----3--2--1--0--3--2--1--0--|
    
       
    --------------------------------------------|--------------------------------|
    --------------------------------------------|--------------------------------|
    --------------------------------------------|--------------------------------|
    --------------------------------------------|--------------------------------|
    --------------------------------------------|--2----5---------7----8----3----|
    -----3--2--1--0-----3--2--1--0--3--2--1--0--|--0----3----0----5----6----1----|
    
    

    Тональность:

    Нет текста!



    Назад
    Рекомендуем посмотреть другие песни исполнителя «Megadeth»:

    • Комментарии Facebook ()
    • Комментарии ВКонтакте



    Добавить в Избранное Браузера
    Сохранить здесь Очистить


    x

    0


    +
    -

    +
    -

    -

    Авторизация





    Зарегистрироваться

    M

    Дата и время

    • 22:51:22
       

    Социальные ссылки


    Наши приложения

    • Muzbank App Play Market
    • Muzbank Amazon App