MUZBANK



A Most Complete Bank Of Music Information

МУЗЫКАЛЬНО-ИНФОРМАЦИОННЫЙ БАНК

Поиск по сайту







    MMegadeth • Problems (аккорды и текст - chords & lyrics)


    211

    Print

    Видео «Problems (Megadeth)»

    Видео клипы к песне подбираются автоматически сайтом youtube. Возможны некоторые несоответствия клипов песне.

    ↑ Спрятать рекламу ↑



    Download


     
    intro:  D C A x 4
     
    verse
    D        C             A
    Too many problems oh why am I here 
    I don't need to be me cos you're all too clear
    And I can see there's something wrong with you
    What do you expect me to do
    At least I gotta know what I wanna be
    Don't come to me if you need pity
    Are you lonely you got noone
    You got your body in suspension
     
    chorus
    A       B       C                            
    Problem problem problem The problem is you
    D C A  (repeat as needed)
     
    second verse
     
    Eat your heart out on a plastic tray 
    You don't do what you want then you fade away
    You won't find me working 9 to 5
    Too Much fun being alive
    I'm using my feet for my human machine
    You won't find me living for the screen
    Are you lonely all needs catered
    You got your brains dehydrated
     
    chorus
     
    solo:  D C A x12
     
    chorus
     
    third verse
    I'm a death trip I ain't automatic
    You won't find me just staying static
    Don't give me any orders
    For people like me there is no order
    Bet you thought you had it all worked out
    Bet you thought you knew what I was about
    Bet you thought you solved all your problems
    But you are the problem
     
    chorus 
     
    outro:  
    D C A x 12  (w/ad-lib)
    A
    
    
    
    Ритм  партия в табулатурах:
    Tuning: Eb
    
    
    Riff 1
    eb|--------------------------------|
    Bb|--------------------------------|
    Gb|-7-7-7-5-5-5-5------5h7-5~------|
    Db|-7-7-7-5-5-5-5-2--2-5h7-5~--7p5-|
    Ab|-5-5-5-3-3-3-3-0--0---------7p5-|
    Eb|--------------------------------|
    
    
    Riff 2
    eb|--------------------------------|
    Bb|--------------------------------|
    Gb|--------------------5h7-5~------|
    Db|-7-7-7-5-5-5-5-2--2-5h7-5~--7p5-|
    Ab|-5-5-5-3-3-3-3-0--0---------7p5-|
    Eb|--------------------------------|
        * * * * * * *
       "Too many problems..."
    
    Riff 3
    Guitar 1
    eb|---------------------------------|
    Bb|---------------------------------|
    Gb|-2-2-2-2-2-2-2-2-2-2-2-2-2-2-2-2-|
    Db|-2-2-2-2-2-2-2-2-2-2-2-2-2-2-2-2-|
    Ab|-0-0-0-0-0-0-0-0-0-0-0-0-0-0-0-0-|
    Eb|---------------------------------|
    
    eb|---------------------------------|
    Bb|---------------------------------|
    Gb|-4-4-4-4-4-4-4-4-4-4-4-4-4-4-4-4-|
    Db|-4-4-4-4-4-4-4-4-4-4-4-4-4-4-4-4-|
    Ab|-2-2-2-2-2-2-2-2-2-2-2-2-2-2-2-2-|
    Eb|-2-2-2-2-2-2-2-2-2-2-2-2-2-2-2-2-|
    
    eb|---------------------------------|
    Bb|---------------------------------|
    Gb|-5-5-5-5-5-5-5-5-5-5-5-5-5-5-5-5-|
    Db|-5-5-5-5-5-5-5-5-5-5-5-5-5-5-5-5-|
    Ab|-3-3-3-3-3-3-3-3-3-3-3-3-3-3-3-3-|
    Eb|---------------------------------|
    
    Guitar 2
    eb|---------------------------------|
    Bb|-------------------3-3-3-3-2-2-2-|
    Gb|-2-2-2-2-2-2-2-2-2-2-2-2-2-2-2-2-|
    Db|-2-2-2-2-2-2-2-2-2---------------|
    Ab|-0-0-0-0-0-0-0-0-0---------------|
    Eb|---------------------------------|
    
    eb|---------------------------------|
    Bb|-----------------5-4-4-4-5-4-4-4-|
    Gb|-4-4-4-4-4-4-4-4-4-4-4-4-4-4-4-4-|
    Db|-4-4-4-4-4-4-4-4-----------------|
    Ab|-2-2-2-2-2-2-2-2-----------------|
    Eb|-2-2-2-2-2-2-2-2-----------------|
    
    eb|-----------------------8-----8----|
    Bb|------------------/5h6---5h6---6\-|
    Gb|-5-5-5-5-5-5-5-5------------------|
    Db|-5-5-5-5-5-5-5-5------------------|
    Ab|-3-3-3-3-3-3-3-3------------------|
    Eb|----------------------------------|
    
    
    Play Riff 1
    Play Riff 2
    Play Riff 3   except use this for ending to guitar 2:
    eb|-----------------------8-----8---------8-|
    Bb|------------------/5h6---5h6---5-(5)h6---|
    Gb|-5-5-5-5-5-5-5-5-------------------------|
    Db|-5-5-5-5-5-5-5-5-------------------------|
    Ab|-3-3-3-3-3-3-3-3-------------------------|
    Eb|-----------------------------------------|
    

    Тональность:

    Нет текста!



    Назад
    Рекомендуем посмотреть другие песни исполнителя «Megadeth»:

    • Комментарии Facebook ()
    • Комментарии ВКонтакте



    Добавить в Избранное Браузера
    Сохранить здесь Очистить


    x

    0


    +
    -

    +
    -

    -

    Авторизация





    Зарегистрироваться

    M

    Дата и время

    • 15:55:14
       

    Социальные ссылки


    Наши приложения

    • Muzbank App Play Market
    • Muzbank Amazon App