MUZBANK



A Most Complete Bank Of Music Information

МУЗЫКАЛЬНО-ИНФОРМАЦИОННЫЙ БАНК

Поиск по сайту







    MMegadeth • She-wolf (аккорды и текст - chords & lyrics)


    638

    Print

    Видео «She-wolf (Megadeth)»

    Видео клипы к песне подбираются автоматически сайтом youtube. Возможны некоторые несоответствия клипов песне.

    ↑ Спрятать рекламу ↑



    Download


     
    album  Cryptic Writings]
    
    Standard Tuning
    
    Intro & Verse
    |---------------------------------
    |---------------------------------
    |---------------------------------
    |---------------------------------
    |---------------------------------
    |-0-000-0-000-0-000-0-000-000-000-
    
    Pre-Chorus
    e)----------------------------------------------------------------
    B)----------------------------------------------------------------
    G)----------------------------------------------------------------
    D)---------8----------8-------------------------------------------
    A)--10----10---10----10---10----8-9--10----8-9--10-----8-9--10--
    E)---8----11----8----11----8----6-7---8----6-7---8-----6-7---8--
    
    e)----------------------------------------------------------------
    B)----------------------------------------------------------------
    G)----------------------------------------------------------------
    D)----------------------------------------------------------------
    A)--8-9--10-------------------------------------------------------
    E)--6-7---8---8-8-8-8---8--8-8-8---8--8-8-8---8-8-8--8-8-8--8-8-8-
    
    2nd time:
    e)---------------------------------
    B)---------------------------------
    G)---------------------------------
    D)---------------------------------
    A)--8-9--10-----9---8------2-------
    E)--6-7---8-----7---6------0-------
    
    Chorus
    e)------------------------------------------------------------------
    B)------------------------------------------------------------------
    G)---5-----3-------------------------5-----3------------------------
    D)---5-----3------3------8-----------5-----3------3------5----------
    A)---3-----1------3------6-----------3-----1------3------5----------
    E)----------------1------6------------------------1------3-----0----
    
    e)----------------------------------
    B)----------------------------------
    G)----------------------------------
    D)------------------------1---------
    A)-----5-/-6--5----3-----1---------
    E)-----3-/-4--3----1---------------
    
    
    Interlude
    |-----------------------------------------------------------------------------------
    |-----------------------------------------------------------------------------------
    |-5-------------------3--------------------------------------------------3--------4-
    |-5-------------------3-------------------6-------------------5----------3--------4-
    |-3-----3-3-3-3-3-3-3-1-----1-1-1-1-1-1-1-6-------------------5----------1--1-1-1-2-
    |-----------------------------------------4-----4-4-4-4-4-4-4-3--3-3-3-3------------
    
    Solo Rhythm
    |--------------------------------------------------------------------------------
    |--------------------------------------------------------------------------------
    |-5------------------------3-----------------------------------------------------
    |-5------------------------3-------------------------6---------------------------
    |-3---3-3-3-3-3-3-3-3--3-3-1---1-1-1-1-1-1-1-1-1-1-1-6---------------------------
    |----------------------------------------------------4---4-4-4-4-4-4-4-4-4-4-4-4-
    
    |-------------------------------
    |-------------------------------
    |-----------------3-----------4-
    |-5---------------3-----------4-
    |-5---------------1-1-1-1-1-1-2-
    |-3---3-3-3-3-3-3---------------
    
    Outro Rhythm
    |-------------------------------------------------------
    |-------------------------------------------------------
    |-5-------------3---------------------------------------
    |-5-------------3-------------6-------------5---------4-
    |-3---3-3-3-3-3-1---1-1-1-1-1-6-------------5---------2-
    |-----------------------------4---4-4-4-4-4-3---3-3-3---
    
    Outro Lead
    |---------------------------------|-6----------------------|
    |--------3-4-6----4-3-4---3-------|-----9-8-6-9-8-6--------|
    |-/5------------------------5-3---|-----------------8------|
    |---------------------------------|-------------------6----|
    |---------------------------------|------------------------|
    |---------------------------------|------------------------|
    
    |----------------------|-----------------------|
    |----------------------|-----------------------|
    |----------------------|-----------------------|
    |------8------6------5-|---5---5-6-8---6---6-8-|
    |-8-10----6-8----6-8---|-8---8-------8---8-----|
    |----------------------|-----------------------|
    
    |---------------------------------|-6-----------------------|
    |--------3-4-6----4-3-4---3-------|-----9--8-6--9--8-6------|
    |-/5------------------------5-3---|---------------------8---|
    |---------------------------------|-----------------------6-|
    |---------------------------------|-------------------------|
    |---------------------------------|-------------------------|
    |                                 |                         |
    |---------------------------------|-9-----------------------|
    |--------6-7-9----7-6-7---6-------|----12-11-9-12-11-9------|
    |--8-------------------------8-6--|--------------------11---|
    |---------------------------------|-----------------------9-|
    |---------------------------------|-------------------------|
    |---------------------------------|-------------------------|
    
    |----------------------|-----------------------|
    |----------------------|-----------------------|
    |----------------------|-----------------------|
    |------8------6------5-|---5---5-6-8---6---6-8-|
    |-8-10----6-8----6-8---|-8---8-------8---8-----|
    |----------------------|-----------------------|
    |                      |                       |
    |----------------------|-----------------------|
    |----------------------|-----------------------|
    |----------------------|-----------------------|
    |------11------9------8|---8---8-9-11--9---9-11|
    |11-13----9-11---9-11--|-11--11------11--11----|
    |----------------------|-----------------------|
    
    2X:
    |-------------------------------------------------------------|
    |-------------------------------------------------------------|
    |-----8-7----7-8-----8-7----7-8-----8-7----7-8-----8-7----7-8-|
    |-10------10------8------10------6------10-------------10-----|
    |----------------------------------------------10-------------|
    |-------------------------------------------------------------|
    |                                                             |
    |-------------------------------------------------------------|
    |-----7-6----6-7-----7-6----6-7-----7-6----6-7-----7-6----6-7-|
    |--8-------8------6-------8--------------8--------------8-----|
    |--------------------------------9--------------8-------------|
    |-------------------------------------------------------------|
    |-------------------------------------------------------------|
    
    2X:
    |------------------------------------------------------------------|
    |------------------------------------------------------------------|
    |-----8-7----7-8------8-7----7-8------8-7----7-8------8-7-----7--8-|
    |-10------10-------8------10-------6------10---------------10------|
    |-------------------------------------------------10---------------|
    |------------------------------------------------------------------|
    |                                                                  |
    |----11-10---10-11----11-10--10-11----11-10--10-11----11-10--10-11-|
    |-13------13-------11------13--------------13--------------13------|
    |----------------------------------13-------------12---------------|
    |------------------------------------------------------------------|
    |------------------------------------------------------------------|
    |------------------------------------------------------------------|
    
    2X:
    |-----------------------------------------------------------------------|
    |-----------------------------------------------------------------------|
    |------8--8--8---787--8------8--8--8---787--8------8--8--8---787---8----|
    |-10---------------------8---------------------6------------------------|
    |--------------------------------------------------------------------10-|
    |-----------------------------------------------------------------------|
    |                                                                       |
    |-----11-11-11-101110-11----11-11-11-101110-11----11-11-11-101110-11----|
    |-13---------------------11---------------------------------------------|
    |----------------------------------------------13--------------------12-|
    |-----------------------------------------------------------------------|
    |-----------------------------------------------------------------------|
    |-----------------------------------------------------------------------|
     

    Тональность:

    Нет текста!



    Назад
    Рекомендуем посмотреть другие песни исполнителя «Megadeth»:

    • Комментарии Facebook ()
    • Комментарии ВКонтакте



    Добавить в Избранное Браузера
    Сохранить здесь Очистить


    x

    0


    +
    -

    +
    -

    -

    Авторизация





    Зарегистрироваться

    M

    Дата и время

    • 12:43:24
       

    Социальные ссылки


    Наши приложения

    • Muzbank App Play Market
    • Muzbank Amazon App