MUZBANK



A Most Complete Bank Of Music Information

МУЗЫКАЛЬНО-ИНФОРМАЦИОННЫЙ БАНК

Поиск по сайту







    MMegadeth • The Killing Road (аккорды и текст - chords & lyrics)


    296

    Print

    Видео «The Killing Road (Megadeth)»

    Видео клипы к песне подбираются автоматически сайтом youtube. Возможны некоторые несоответствия клипов песне.

    ↑ Спрятать рекламу ↑



    Download


    Again we stalk the stage
    At mach speed we engage
    Feeding people's rage
    The big cat's left it's cage
    Back in the bus again
    To catch another plane
    This behavior's quite insane
    But we do it for the fame, yeah
    
    I lost my mind, I lost all my money
    I lost my life to the killing road
    
    The road will never end
    It always starts again
    Another show's around the bend
    Another long lost friend
    Faceless as the snow
    There's nothing special about the road
    It's just another haul
    It's just too damn long that's all, yeah
    
    
    
    
    Notation: h=Hammer; p=Pull; .=Palm Mute;
    =Slide down; /=Slide up; b=bend. 
    
    
    Tempo about 175
    
    Intro:
    Play 2x Play 2x
    eb---|(Guitar 1)-----------------------||--------------------------------||
    Bb---||--------------------------------||--------------------------------||
    Gb---||--------------------------------||--------------------------------||
    Db---||----2-----3-----2-----3---------||----2-----3-----2-----3---------||
    Ab---||--------------------------5~~~~~||--------------------------5~~~~~||
    Eb---||0-0---0-0---0-0---0-0---0-------||0-0---0-0---0-0---0-0---0-------||
    ||. . . . . . . . . ||. . . . . . . . . ||
    || || ||
    eb---|(Guitar 2)-----------------------||--------------------------------||
    Bb---||--------------------------------||--------------------------------||
    Gb---||--------------------------------||----4-----5-----4-----5---------||
    Db---||--------------------------------||--------------------------7~~~~~||
    Ab---||--------------------------------||--------------------------------||
    Eb---||--------------------------------||0-0---0-0---0-0---0-0---0-------||
    . . . . . . . . .
    
    Play 2x
    |(Guitars 1&2)--------------------|--------------------------------||
    ||--------------------------------|--------------------------------||
    ||--------------------------------|----------------------5-------4-||
    ||----2-----3-----2---------------|----3-----3-------2-5-----1-4---||
    ||--------------------5-2-5-------|--------------353-------2-------||
    ||0-0---0-0---0-0---0---------2-3-|1-1---1-1---1-------------------||
    . . . . . . . . . . . . . . ... . . . . . 
    
    Verse 1:
    --------
    Play 4x
    |(Guitars 1&2)--------------------|--------------------------------||
    ||--------------------------------|--------------------------------||
    ||--------------------------------|----------------------5-------4-||
    ||----2-----3-----2---------------|----3-----3-------2-5-----1-4---||
    ||--------------------5-2-5-------|--------------353-------2-------||
    ||0-0---0-0---0-0---0---------2-3-|1-1---1-1---1-------------------||
    . . . . . . . . . . . . . . ... . . . . . 
    
    Chorus:
    -------
    Play 7x
    |--------------------------------||--------------------------------||
    |--------------------------------||--------------------------------||
    |--------------------------------||--------------------------------||
    |----9---------------------------||----9---------------------------||
    |2---7-----9-----8-----5-------3-||2-x-7-----9-----8-----5-------3-||
    |0---------7-----6-----3-------1-||0-x-------7-----6-----3-------1-||
    .
    
    Verse 2:
    --------
    Play 4x
    |(Guitars 1&2)--------------------|--------------------------------||
    ||--------------------------------|--------------------------------||
    ||--------------------------------|----------------------5-------4-||
    ||----2-----3-----2---------------|----3-----3-------2-5-----1-4---||
    ||2-------------------5-2-5-------|--------------353-------2-------||
    ||0-0---0-0---0-0---0---------2-3-|1-1---1-1---1-------------------||
    . . . . . . . . . . . . . ... . . . . . 
    
    Chorus:
    -------
    Play 7x
    |--------------------------------||--------------------------------||
    |--------------------------------||--------------------------------||
    |--------------------------------||--------------------------------||
    |----9---------------------------||----9---------------------------||
    |2---7-----9-----8-----5-------3-||2-x-7-----9-----8-----5-------3-||
    |0---------7-----6-----3-------1-||0-x-------7-----6-----3-------1-||
    .
    
    Bridge:
    -------
    
    (Guitars 1&2)--------------------|------------------------------|
    |--------------------------------|------------------------------|
    |--------------------------------|----------------------5-------|
    |----2-----3-----2---------------|----3-----3-------2-5-----1-4-|
    |2-------------------5-2-5-------|--------------353-------2-----|
    |0-0---0-0---0-0---0---------2-3-|1-1---1-1---1-----------------|
    . . . . . . . . . . . . . ... . . . . . 
    
    
    (Guitars 1&2)--------------------|--------------------------------|
    |--------------------------------|--------------------------------|
    |--------------------------------|--------------------------------|
    |----2-----3-----2---------------|9-10--7-9---5-7---4-5-----------|
    |--------------------5-2-5-------|7-8---5-7---3-5---2-3-----------|
    |0-0---0-0---0-0---0---------2-3-|--------------------------5-4-3-|
    . . . . . . . . . . . . 
    
    
    Lead Solo:
    ----------
    
    |(Guitar 1)-----------------------|--------------------------------||
    ||--------------------------------|--------------------------------||
    ||--------------------------------|--------------------------------||
    ||--------------------------------|--------------------------------||
    ||4---4-----------4---4---------4-|2---2-----------5-------5-------||
    ||2-2-2-2-2-2-2-2-2-2-2-2-2-2-2-2-|0-0-0-0-0-0-0-0-3---0-0-3---0-0-||
    . . . . . . . . . . . . . . . . . . . . .
    
    Play 3x
    |--------------------------------|--------------------------------||
    |--------------------------------|--------------------------------||
    |--------------------------------|--------------------------------||
    |--------------------------------|--------------------------------||
    |4---4-----------4---4-----4---4-|2---2-----------5-------5-------||
    |2-2-2-2-2-2-2-2-2-2-2-2-2-2-2-2-|0-0-0-0-0-0-0-0-3---0-0-3---0-0-||
    . . . . . . . . . . . . . . . . . . . .
    
    
    Marty: Ignore this!.
    
    (Guitar 2)-----------------------|--------------------------------|
    |------------------7-------------|--------------------------------|
    |------------6---------6---------|-----------6---7---9---9-/-11---| etc...
    |------8--------------------8----|------8-------------------------|
    |9-------------------------------|9-------------------------------|
    |--------------------------------|--------------------------------|
    
    
    
    (Guitar 1)-----------------------|
    |--------------------------------|
    |--------------------------------|
    |--------------------------------|
    |2-----------------------3-3-3-5-|
    |0-----------------------1-1-1-3-|
    
    
    |(Guitars 1&2)--------------------|--------------------------------||
    ||--------------------------------|--------------------------------||
    ||--------------------------------|----------------------5-------4-||
    ||----2-----3-----2---------------|----3-----3-------2-5-----1-4---||
    ||--------------------5-2-5-------|--------------353-------2-------||
    ||0-0---0-0---0-0---0---------2-3-|1-1---1-1---1-------------------||
    . . . . . . . . . . . . . . ... . . . . . 
    
    Chorus:
    -------
    Repeat till end.
    |--------------------------------||--------------------------------||
    |--------------------------------||--------------------------------||
    |--------------------------------||--------------------------------||
    |----9---------------------------||----9---------------------------||
    |2---7-----9-----8-----5-------3-||2-x-7-----9-----8-----5-------3-||
    |0---------7-----6-----3-------1-||0-x-------7-----6-----3-------1-||
    
    
    SOLO PART
    
    
     
    |------------------|-------------------|------------------------------------|
    |------------------|-------------------|------------------------------------|
    |------------------|two gtrs arr for 1-|------------------------------5---4-|
    |------------------|--9--10--9--10-8---|----------------5----3--3-3--5---4--|
    |---7--8--7--8-5---|--7--8---7--8--6---|---7--8--7-5----------------7---6---|
    |-00-00-00-00-0----|00-00--00-00--0----|-00-00-00-8-7----3211-11-1-8---7----|
    
    |----------------------------------------|
    |----------------------------------------|
    |----------------------------------------|
    |-4-4-----4-4-4-5-2-2-----5---5---4-4----|
    |-4-4-----4-4-4-5-2-2-----5---5---4-4----|
    |-2-2-22222-2-2-3-0-0-00003-003-002-2...-|
    
    
    solo
    |-----------------------------------------------------------------------------|
    |---------7------------------------------------_____--------------------------|
    |-------6-----9-6-------6-7---9--h11---9---7---9p7p6---b7r6b7r6---------------|
    |-----8---------------8-----------------------------------------8/9-9---9vv---|
    |-9---------------9-----------------------------------------------------------|
    |-----------------------------------------------------------------------------|
    
    |----------------------------------------------------------------------------------------|
    |---------------------------------------------------------------11b__12r__11--14--12--11-|
    |--------------------------_____-----------11brbr--9--11--12-14--------------------------|
    |-8--9--8_h9p8--------/11--12p11b12-114-------------------------------------------------|
    |-----------------97--------------------------------------------------------------------|
    |----------------------------------------------------------------------------------------|
    
    |-------------------------10h14p10----------------|
    |-12h14p12p11-12----12-14----------14-12----12vv--|
    |----------------11----------------------11-------|
    |-------------------------------------------------|
    |-------------------------------------------------|
    |-------------------------------------------------|
    
    |---------------------------------------------------------------------------------------------|
    |---7---7-----------7-/-11--------------------14p11--------11----14-/-17p14----17p14----17p14-|
    |-6-------6-----6----------11------------11---------11-(11)---11------------15-------15-------|
    |-----------8-----8----------11----11-11------------------------------------------------------|
    |-------------9-----------------13------------------------------------------------------------|
    |---------------------------------------------------------------------------------------------|
    
    |-----------------------------------------------------------------------------------------------------|
    |-15h17p15p14----14-15h17p15p14----14-15h17p15p14-----1514-------1412-------12-14p12----------------|
    |-------------16----------------15-----------------16----------15----------12-------------12----------|
    |------------------------------------------------17---------16----------14-------------14----14-16_br-|
    |-----------------------------------------------------------------------------------------------------|
    |-----------------------------------------------------------------------------------------------------|
    
    |-16r14p12-14v----15p14-12-14-13-------------________---------------------|
    |--------------------------------17-16-15-14-13/14h15-15p14----14---------|
    |-----------------------------------------------------------17-----16-14--|
    |-----------------------------------------------------------------(16)----|
    |-------------------------------------------------------------------------|
    |-------------------------------------------------------------------------|
    
    |-17b19--17-14--------------------------------------------|
    |---------------17-14--17b19--17-14-----------------------|
    |-----------------------------------17r16p14-16_b19rbrbr--|
    |---------------------------------------------------------|
    |---------------------------------------------------------|
    |---------------------------------------------------------|
    
    |----------------------18p14----18p14----18-/-21p18----21p18----21p1812-|
    |----------13/14-14-14-------14-------14------------19-------19----------|
    |-14--/13---------------------------------------------------------------|
    |------------------------------------------------------------------------|
    |------------------------------------------------------------------------|
    |------------------------------------------------------------------------|
    
    |-15p12----15p12----15/18-18-14-------------18/19-19p15----19p15----19/22-22p19----22p19----22p19-24p19-----|
    |-------14-------14-------------14----14-14-------------17-------17-------------20-------20-------------20--|
    |-----------------------------------------------------------------------------------------------------------|
    |----------------------------------16-----------------------------------------------------------------------|
    |-----------------------------------------------------------------------------------------------------------|
    |-----------------------------------------------------------------------------------------------------------|
    
    |-1915-19p15----19p15-----1512-/15--------------------------15-----------17---------------19--------------|
    |-------------17-------17------------17----17b19vvv--b19---b20---b20---b22-b22---22b24----22-b24-19--|
    |---------------------------------------16------------------------------------------------------------------|
    |-----------------------------------------------------------------------------------------------------------|
    |-----------------------------------------------------------------------------------------------------------|
    |-----------------------------------------------------------------------------------------------------------|
    
    |-22b24---22b24---22b24---22b24--22b24--22b24--22vvv-----20-22-19-20-17-19-15-17-14-15-12-14-12vvv--|
    |---------------------------------------------------------------------------------------------------|
    |---------------------------------------------------------------------------------------------------|
    |---------------------------------------------------------------------------------------------------|
    |---------------------------------------------------------------------------------------------------|
    |---------------------------------------------------------------------------------------------------|
    
    |-14--15--17--17b19r__17-15-13___----12-11-10----10---------------------------------|
    |----------------------------------------------12--------12-11-10----10-11-10--------|
    |-----------------------------------------------------------------12----------12-9---|
    |------------------------------------------------------------------------------------|
    |------------------------------------------------------------------------------------|
    |------------------------------------------------------------------------------------|
    
    
    
    

    Тональность:

    Нет текста!



    Назад
    Рекомендуем посмотреть другие песни исполнителя «Megadeth»:

    • Комментарии Facebook ()
    • Комментарии ВКонтакте



    Добавить в Избранное Браузера
    Сохранить здесь Очистить


    x

    0


    +
    -

    +
    -

    -

    Авторизация





    Зарегистрироваться

    M

    Дата и время

    • 23:15:19
       

    Социальные ссылки


    Наши приложения

    • Muzbank App Play Market
    • Muzbank Amazon App