MUZBANK



A Most Complete Bank Of Music Information

МУЗЫКАЛЬНО-ИНФОРМАЦИОННЫЙ БАНК

Поиск по сайту







    MMegadeth • Use The Man (аккорды и текст - chords & lyrics)


    319

    Print

    Видео «Use The Man (Megadeth)»

    Видео клипы к песне подбираются автоматически сайтом youtube. Возможны некоторые несоответствия клипов песне.

    ↑ Спрятать рекламу ↑



    Download



    I heard somebody fixed today
    There was no last goodbyes to say
    His will to live ran out
    I heard somebody turned to dust
    
    Looking back at what he left
    A list of plans and photographs
    Songs that never will be sung
    These are the things he won't get done
    The things he won't get done
    
    I've seen the man use the needle, seen the needle use the man
    I've seen them crawl from the cradle to the coffin on their hands
    They fight a war, but it's fatal; it's so hard to understand
    I've seen the man use the needle, seen the needle use the man
    
    Just one shot to say "goodbye"
    One last taste to mourn and cry, cry
    Scores and shoots, the lights go dim
    Just one shot to do him in
    
    He hangs his head and wonders why
    Why the monkey only lies, lies
    But pay the pauper, he did choose
    He hung his head inside the noose
    
    I've seen the man use the needle, seen the needle use the man
    I've seen them crawl from the cradle to the gutter on their hands
    They fight a war, but it's fatal; it's so hard to understand
    I've seen the man use the needle, seen the needle in his hand
    Cryptic writing on the wall, the beginning of the end
    I've seen myself use the needle, seen the needle in my hand
    
    
    
    
    
    
    
    /USE THE MAN Tab - Megadeth/
    
     
     
    Standard Tuning 
     
    Intro & Verse 
    -0------0-0------0---0-0------0---0-0------0---0-0- 
    -0------0-0------0---0-0------0---0-0------0---0-0- 
    -1---1--1-1------4---4-4------3---3-3------2---2-2- 
    -2---2--2-2--5-5-5---5-5--4-4-4---4-4--3-3-3---3-3- 
    -2---2-------5-5-5--------4-4-4--------3-3-3------- 
    -0---0-------3-3-3--------2-2-2--------1-1-1------- 
     
    Chorus 
    ------------------------------------ 
    ------------------------------------ 
    ------------------------------------ 
    -2---2------5--------4--------3----- 
    -2---2------5--------4--------3----- 
    -0---0-00-333---33-222---22-111---11 
     
    Lead Fill (1st Chorus) 
    D)--------------------------------------------------------2------ 
    A)------7---5-7-----5------5-7-----5------5-7-------------2------ 
    E)---0-----------7--------------7--------------7-6-5-3----0------ 
     
     
    Bridge(in 2nd Chorus) 
    ------------------------------------ 
    ------------------------------------ 
    ------------------------------------ 
    -4---4------7--------6--------5----- 
    -4---4------7--------6--------5----- 
    -2---2-22-555---55-444---44-333---33 
     
    Solo Rhythm 
    D)---2-------------------------------------- 
    A)---2------------7---------5-h-7----------- 
    E)---0------0---------0--------------0------ 
     
    D)---5-------------------------------------- 
    A)---5------------7---------5-h-7----------- 
    E)---3------0---------0--------------0------ 
     
    D)---4-------------------------------------- 
    A)---4------------7---------5-h-7----------- 
    E)---2------0---------0--------------0------ 
     
    D)---3-------------------------------------- 
    A)---3------------7---------5-h-7----------- 
    E)---1------0---------0--------------0------ 
     
     
    Then: 
     
    D)---2----5----7--------------------------------- 
    A)---2----5----7-----3-p-2--3-p-2--3-p-2---3----- 
    E)---0----3----5--------------------------------- 
     
    D)---2----5----7--------------------------------- 
    A)---2----5----7-----3-p-2--3-p-2--3-p-2---5----- 
    E)---0----3----5--------------------------------- 
     
     
    Outro: 
     
    D)---2-------------------------------------- 
    A)---2-----------7--------5-h-7------------- 
    E)---0------0--------0--------------0------- 
     
    D)---5-------------------------------------- 
    A)---5-----------7--------5-h-7------------- 
    E)---3------0--------0--------------0------- 
     
    D)---4-------------------------------------- 
    A)---4-----------7--------5-h-7------------- 
    E)---2------0--------0--------------0------- 
     
    First time: 
     
    D)---3-p-2---3-p-2---3-p-2----3------- 
    A)---3-p-2---3-p-2---3-p-2----3------- 
    E)------------------------------------ 
     
    Second time: 
     
    D)---3-p-2---3-p-2---3-p-2----5------- 
    A)---3-p-2---3-p-2---3-p-2----5------- 
    E)------------------------------------ 
     
    Ending: 
     
    D)---3-p-2---3-p-2---3-p-2-----------2-------- 
    A)---3-p-2---3-p-2---3-p-2-----------2-------- 
    E)-----------------------------3-----0-------- 
    
    
    
    
    
    
    
    /USE THE MAN Bass Tab/
    
    
     
    New Symbols: ~ - Symbol for a bend, in this case, a slow deep bend 
                 \ - Symbol for a slide (always tough to write those out) 
     
     
    Standard Tuning 
     
    Intro: guitar vocals 
     
    Verse 1 
     
    Verse 2 
     
    I---------------------------------------------I 
    I-0-------------------------------------------I 
      
    I----------------------------------------------I 
    I------------------------2------\-----------7--I 
     
    The slide should take as long as it takes for dave to say the word  
    "photographs" 
     
    I----------------------------------I 
    I-0--------------------------------I 
     
    I-----------------------------------------------------------I 
    I------------------------------------------------------7----I 
     
    When the drums enter, wait for a count of 2 and then play 
     
    I-5-6-7--I 
    I--------I 
     
    Chorus 1 
    riff on 3rd time 
    I-----------------------------------------------|------------------I 
    I-----------------------------------------------|------------------I 
    I-----------------------------------------------|---\-7------------I 
    I-0-0-0-0-0-0-3-3-3-3-3-2-2-2-2-2-2-1-1-1-1-1-1-|-0-------6-5-3-0--I 
     
    Verse 3 
     
    I-----------------------------------------2-\-7--I 
     
    |-9-7-------------------------------------------------------I 
    |----10-8-7-------------------------------------------------I 
    |----------0--start riff 2----------------------------------I 
     
          I----------------I-----------------I 
     Riff I----------------I-----------------I 
      2   I----------------I-\0-7-7-7-7-7-5--I 
          I-0-3-3-2-1-1-0--I---------------7-I 
     
     
    Play riff 2 until the verse ends and you should be ending  
    with the fill at the end of the riff. 
     
    Chorus 2 
    I------------------------------------------------I 
    I------------------------------------------------I 
    I------------------------------------------------I 
    I-0-0-0-0-0-0-3-3-3-3-3-2-2-2-2-2-2-1-1-1-1-1-1--I 
     
    I------------------------------------------------I 
    I------------------------------------------------I 
    I------------------------------------------------I 
    I-0-0-0-0-0-0-3-3-3-3-3-2-2-2-2-2-2-1-1-1-1-1-1--I 
     
    I------------------------------------------------I 
    I------------------------------------------------I 
    I------------------------------------------------I 
    I-0-0-0-0-0-0-3-3-3-3-3-2-2-2-2-2-2-1-1-1-1-1-1--I 
     
    I------------------------------------------------I 
    I------------------------------------------------I 
    I------------------------------------------------I 
    I-0-0-0-0-0-0-3-3-3-3-3-2-2-2-2-2-2-1-1-1-1-1-1--I 
     
    I------------------------------------------I 
    I------------------------------------------I 
    I------------------------------------------I 
    I-2-2-2-2-2-5-5-5-5-5-4-4-4-4-4-3-3-3-3-3--I 
     
    I------------------------------------------------I 
    I------------------------------------------------I 
    I------------------------------------------------I 
    I-0-0-0-0-0-0-3-3-3-3-3-2-2-2-2-2-2-1-1-1-1-1-1--I 
     
    Pre-Solo 
    I----------------------I 
    I----------------------I 
    I--\7------7-7-7-5-----I 
    I-0---0--0--------7-5--I 
     
    Solo 
    4 times 
    I------------------------------------------------I 
    I------------------------------------------------I 
    I------------------------------------------------I 
    I-0-0-0-0-0-0-3-3-3-3-3-2-2-2-2-2-2-1-1-1-1-1-1--I 
     
    Chorus 3 
    I------------------------------------------------------I 
    I------------------------------------------------------I 
    I----------------------0-0-0-0-0-0-0-2-3-2-3-2-3-2-----I 
    I-0-0-0-0-0-0-3-3-3-3-3---------------------------3-0--I 
     
    I------------------------------------------------------I 
    I------------------------------------------------------I 
    I----------------------0-0-0-0-0-0-0-2-3-2-3-2-3-2-5---I 
    I-0-0-0-0-0-0-3-3-3-3-3-----------------------------0--I 
     
    I------------------------------------------------------I 
    I------------------------------------------------------I 
    I----------------------0-0-0-0-0-0-0-2-3-2-3-2-3-2-----I 
    I-0-0-0-0-0-0-3-3-3-3-3---------------------------3-0--I 
     
    I----------------------------------------------------------------I 
    I-----------------------------7-7-7-7-7-7-7-9-10-9-10-9-10-------I 
    I-7-7-7-7-7-7-9-10-10-10-10-10----------------------------10-9---I 
    I-------------------------------------------------------------0--I 
     
    Outro 
    I------------------------------------------------I 
    I------------------------------------------------I 
    I------------------------------------------------I 
    I-0-0-0-0-0-0-3-3-3-3-3-2-2-2-2-2-2-1-1-1-1-1-1--I 
     
    I------------------------------------------------I 
    I------------------------------------------------I 
    I------------------------------------------------I 
    I-0-0-0-0-0-0-3-3-3-3-3-2-2-2-2-2-2-1-1-1-1-1-1--I 
     
    I------------------------------------------------I 
    I------------------------------------------------I 
    I------------------------------------------------I 
    I-0-0-0-0-0-0-3-3-3-3-3-2-2-2-2-2-2-1-1-1-1-1-1--I 
     
    I---------------------------------------------------I 
    I---------------------------------------------------I 
    I-7-7-7-7-7-7-5-5-5-5-5-4-4-4-4-4-4-2-3-2-3-2-3-----I 
    I----------------------------------------------3-0--I 
    

    Тональность:

    Нет текста!



    Назад
    Рекомендуем посмотреть другие песни исполнителя «Megadeth»:

    • Комментарии Facebook ()
    • Комментарии ВКонтакте



    Добавить в Избранное Браузера
    Сохранить здесь Очистить


    x

    0


    +
    -

    +
    -

    -

    Авторизация





    Зарегистрироваться

    M

    Дата и время

    • 20:52:31
       

    Социальные ссылки


    Наши приложения

    • Muzbank App Play Market
    • Muzbank Amazon App