MUZBANK



A Most Complete Bank Of Music Information

МУЗЫКАЛЬНО-ИНФОРМАЦИОННЫЙ БАНК

Поиск по сайту







    MMegadeth • Use The Man (аккорды и текст - chords & lyrics)


    208

    Print

    Видео «Use The Man (Megadeth)»

    Видео клипы к песне подбираются автоматически сайтом youtube. Возможны некоторые несоответствия клипов песне.

    ↑ Спрятать рекламу ↑



    Download



     
    
    
    Intro and Verse (acoustic)
    
    Chords: E    G   F#    F
    E|------0----3----2----1-|
    B|------0----3----2----1-|
    G|------1----4----3----2-|
    D|------2----5----4----3-|
    A|------2----5----4----3-|
    E|------0----3----2----1-|
    
    
    Chorus
    E|-----------------------------------------------------------------|
    B|-----------------------------------------------------------------|
    G|-----------------------------------------------------------------|
    D|---2-2-2-5-5-5-4-4-4-3-3-3---------------------------------------|
    A|---2-2-2-5-5-5-4-4-4-3-3-3---------------------------------------|
    E|---0-0-0-3-3-3-2-2-2-1-1-1---------------------------------------|
    
    Brige ("Cryptic writing on the wall...")
    E|-----------------------------------------------------------------|
    B|-----------------------------------------------------------------|
    G|-----------------------------------------------------------------|
    D|--4-4-4-7-7-7-6-6-6-5-5-5----------------------------------------|
    A|--4-4-4-7-7-7-6-6-6-5-5-5----------------------------------------|
    E|--2-2-2-5-5-5-4-4-4-3-3-3----------------------------------------|
    
    Solo-rhythm
    E|-----------------------------------------------------------------|  
    B|-----------------------------------------------------------------|
    G|-----------------------------------------------------------------|
    D|--2---3---4---3--------------------------------------------------|
    A|--2---5---4---3--------------------------------------------------|
    E|--0---3---2---1--------------------------------------------------|
    
    Last chorus
    E|-----------------------------------------------------------------|
    B|-----------------------------------------------------------------|
    G|-----------------------------------------------------------------|
    D|--2--5--7--------------------------------------------------------|
    A|--2--5--7------3-3232532-----------------------------------------|
    E|--0--3--5--------------------------------------------------------|
    
    Outro
    E|-----------------------------------------------------------------|
    B|-----------------------------------------------------------------|
    G|-----------------------------------------------------------------|
    D|-2~~25p2-4p2-2---2-5p2-4p2-2---2-5p2-4p2-2-----------------------|
    A|--------------5~~-----------4~~------------3~~-2323532-----------|
    E|-----------------------------------------------------------------|
    
    
    
    
    
    
    
    
    
    /USE THE MAN Chords - Megadeth/
    
     Intro & Verse 
     E           G            F#           F 
    -0------0-0------0---0-0------0---0-0-------0---0-0- 
    -0------0-0------0---0-0------0---0-0-------0---0-0- 
    -1---1--1-1------4---4-4------3---3-3-------2---2-2- 
    -2---2--2-2--5-5-5---5-5--4-4-4---4-4--3-33-3---3-3- 
    -2---2-------5-5-5--------4-4-4--------3-33-3------- 
    -0---0-------3-3-3--------2-2-2--------1-11-1------- 
    
    /Verse 1:/ 
    E  G              F# 
    I heard somebody fixed today  
          F                E         G F# F 
    There was no last goodbyes to say 
    E         G       F#  
    His will to live ran out 
             F                  E   G F# F 
    I heard somebody turned to dust 
    
    
    E        G               F# 
    Looking back at what he left 
               F               E   G F# F 
    A list of plans and photographs 
    E           G             F# 
    Songs that never will be sung 
                    F                  E    G                    F#       F 
    These are the things he won't get done (the things he won't get done) 
    
    E5             G5          F#5              F5 
    I've seen the man use the needle, seen the needle use the man 
    E5              G5             F#5           F5 
    I've seen them crawl from the cradle to the gutter on their hands 
    E5            G5          F#5            F5 
    They fight a war but its fatal, it's so hard to understand 
    E5             G5          F#5              F5 
    I've seen the man use the needle, seen the needle use the man 
    
    hide this tab Ponte:                                                E5 
    ------------------------------------------------------------- 
    ------------------------------------------------------------- 
    ------------------------------------------------------------- 
    ------------------------------------------------------2------ 
    ----7---5-7-----5------5-7-----5------5-7-------------2------ 
    -0-----------7--------------7--------------7-6-5-3----0------ 
    
    /Verse 2:/ 
    
    (sem o violão,só fica o wah wah algumas vezes) 
    Just one shot to say goodbye 
    One last taste of morn and cry 
    Score and shoots, the lights go dim 
    Just one shot to do him in 
    
    E         G                   F# 
    He hangs his head and wonders why 
             F           E   G F# F 
    Why the monkey only lies 
    E        G                  F# 
    But pay the pauper he did choose 
                 F               E   G F# F 
    He hung his head inside the noose 
    
    E5             G5          F#5              F5 
    I've seen the man use the needle, seen the needle use the man 
    E5              G5             F#5           F5 
    I've seen them crawl from the cradle to the coffin on their hands 
    E5            G5          F#5            F5 
    They fight a war but its fatal, it's so hard to understand 
    E5             G5          F#5              F5 
    I've seen the man use the needle, seen the needle in his hand man 
    
     
    F#5              A5      G#5       G5 
    Cryptic Writings on the wall, the beginnig of the end 
    F#5           A5           G#5              G5 
    I've seen my self use the needle, seen the needle in my hand 
    
    /tab Base Solo:/ (4x) 
    -------------------------------------- 
    -------------------------------------- 
    -------------------------------------- 
    ---2---------------------------------- 
    ---2------------7---------5-h-7------- 
    ---0------0---------0--------------0-- 
    
    -------------------------------------- 
    -------------------------------------- 
    -------------------------------------- 
    ---5---------------------------------- 
    ---5------------7---------5-h-7------- 
    ---3------0---------0--------------0-- 
    
    -------------------------------------- 
    -------------------------------------- 
    -------------------------------------- 
    ---4---------------------------------- 
    ---4------------7---------5-h-7------- 
    ---2------0---------0--------------0-- 
    
    -------------------------------------- 
    -------------------------------------- 
    -------------------------------------- 
    ---3---------------------------------- 
    ---3------------7---------5-h-7------- 
    ---1------0---------0--------------0-- 
    
    /pre-final:/(2x) 
    ------------------------------------------- 
    ------------------------------------------- 
    ------------------------------------------- 
    ---2----5----7----------------------------- 
    ---2----5----7-----3-p-2--3-p-2--3-p-2---3- 
    ---0----3----5----------------------------- 
    
    ------------------------------------------- 
    ------------------------------------------- 
    ------------------------------------------- 
    ---2----5----7----------------------------- 
    ---2----5----7-----3-p-2--3-p-2--3-p-2---5- 
    ---0----3----5----------------------------- 
    
    Final:(4x) 
    --------------------------------------------------------------- 
    --------------------------------------------------------------- 
    --------------------------------------------------------------- 
    -2~~2-5p2-4p2-2---2-5p2-4p2-2---2-5p2-4p2-2-------------------- 
    ---------------5~~-----------4~~------------3~~-2-3-2-3-5-3-2-- 
    --------------------------------------------------------------- 
    	  

    Тональность:

    Нет текста!



    Назад
    Рекомендуем посмотреть другие песни исполнителя «Megadeth»:

    • Комментарии Facebook ()
    • Комментарии ВКонтакте



    Добавить в Избранное Браузера
    Сохранить здесь Очистить


    x

    0


    +
    -

    +
    -

    -

    Авторизация





    Зарегистрироваться

    M

    Дата и время

    • 19:27:22
       

    Социальные ссылки


    Наши приложения

    • Muzbank App Play Market
    • Muzbank Amazon App