MUZBANK



A Most Complete Bank Of Music Information

МУЗЫКАЛЬНО-ИНФОРМАЦИОННЫЙ БАНК

Поиск по сайту







    MMelvins • Berthas (аккорды и текст - chords & lyrics)


    142

    Print

    Видео «Berthas (Melvins)»

    Видео клипы к песне подбираются автоматически сайтом youtube. Возможны некоторые несоответствия клипов песне.

    ↑ Спрятать рекламу ↑



    Download



     
    
    
    This song is on STAG album
    
     E ---------------------------------------------|
     B ---------------------------------------------|
     G -----------------------------  INTRO REPEAT--| 2X
     D ---------------------------------------------|
     A ----------200--------------------------------|
     E 02025-0202---0012-02025550012----------------|
    
       VERSE
     E ------------------------------------------------------|
     B ------------------------------------------------------|
     G ------------------------------------------------------|
     D ------------------------------------------------------|
     A 44444444444444/7777/222234-44444444444444/2222/66666/4
     E 20202020202022/5555/000012-20202020202022/0000/44444/2
    
    
     E -------------------------------------------------|
     B -------------------------------------------------|
     G -------------------------------------------------|
     D ----------------------------------------------/6-|
     A 44444444444444/7777/222234-44444444444444/2222/4
     E 20202020202022/5555/000012-20202020202022/0000/-
    
    
      RIFF1  THEN GO BACK TO VERSE
     E -------------------------------|
     B -------------------------------|
     G ----------4020-04--------------|
     D -24--0--------4--04--24--0-----|
     A 4--44-40-----------04--44-40-4-|
     E --------02------------------02-|
    
       ENDING RIFF
     E ----------------------------------------|
     B ----------------------------------------|
     G ----------4020-04-----------------------|
     D 24--0---------4--04--24--0--------------|
     A 4--44-40-----------04--44-024-042202204-|
     E --------02----------------------------2-|
    
                 THE END
     

    Тональность:

    Нет текста!



    Назад
    Рекомендуем посмотреть другие песни исполнителя «Melvins»:

    • Комментарии Facebook ()
    • Комментарии ВКонтакте



    Добавить в Избранное Браузера
    Сохранить здесь Очистить


    x

    0


    +
    -

    +
    -

    -

    Авторизация





    Зарегистрироваться

    M

    Дата и время

    • 08:58:57
       

    Социальные ссылки


    Наши приложения

    • Muzbank App Play Market
    • Muzbank Amazon App