MUZBANK



A Most Complete Bank Of Music Information

МУЗЫКАЛЬНО-ИНФОРМАЦИОННЫЙ БАНК

Поиск по сайту







    MMelvins • Candy O (аккорды и текст - chords & lyrics)


    161

    Print

    Видео «Candy O (Melvins)»

    Видео клипы к песне подбираются автоматически сайтом youtube. Возможны некоторые несоответствия клипов песне.

    ↑ Спрятать рекламу ↑



    Download



     
    
    
    -----------------------------------------------------------------------------
                               CANDY O - Melvins
    -----------------------------------------------------------------------------
    
    
    
    
    Standard Tuning - E, A, D, G, B, E
    
    Intro
    
    |---------------|-----------------------|
    |---------------|-----------------------|
    |---------------|-----------------------|
    |-9-9-7-9-109-7-|-2-2-2-2-2-2-2-2-------|
    |-7-7-5-7-8-7-5-|-2-2-2-2-2-2-2-2-0-2~~-|
    |---------------|-0-0-0-0-0-0-0-0-------|
      Play x 4      | Play x 2
    
    Verse
    
    |---------------|
    |---------------|
    |---------------|
    |-9-9-7-9-109-7-|
    |-7-7-5-7-8-7-5-|
    |---------------|
      Play x 4
    
    Chorus
    
    |-------|---------------|-------------------|-------|---------------|
    |-------|---------------|-------------------|-------|---------------|
    |-------|---------------|---------11-9-11~~-|-------|---------------|
    |-5---2-|-9-9-7-9-109-7-|-9-9-7-9-----------|-5---2-|-9-9-7-9-109-7-|
    |-3---0-|-7-7-5-7-8-7-5-|-7-7-5-7-----------|-3---0-|-7-7-5-7-8-7-5-|
    |-------|---------------|-------------------|-------|---------------|
            | Play x 2      | Play x 6          |       | Play x 2
    
    Outro
    
    |-------|---------------------------------------------|
    |-------|---------------------------------------------|
    |-------|---------------------------------------------|
    |-4---7-|---------------------------------------------|
    |-2---5-|-----------------5-7~~-----------------5-7-5-|
    |-------|-0-0-0-0-0-0-0-0-------0-0-0-0-0-0-0-0-------|
      Play x 4
    
    |-------------------------------------------|---|
    |-------------------------------------------|---|
    |-------------------------------------------|---|
    |-------------------------------------------|---|
    |-----------------5-7-----------------5-7~~-|-7-|
    |-0-0-0-0-0-0-0-0-----0-0-0-0-0-0-0-0-------|-0-|
      Play x 3                                  |
    
    
     

    Тональность:

    Нет текста!



    Назад
    Рекомендуем посмотреть другие песни исполнителя «Melvins»:

    • Комментарии Facebook ()
    • Комментарии ВКонтакте



    Добавить в Избранное Браузера
    Сохранить здесь Очистить


    x

    0


    +
    -

    +
    -

    -

    Авторизация





    Зарегистрироваться

    M

    Дата и время

    • 07:06:01
       

    Социальные ссылки


    Наши приложения

    • Muzbank App Play Market
    • Muzbank Amazon App