MUZBANK



A Most Complete Bank Of Music Information

МУЗЫКАЛЬНО-ИНФОРМАЦИОННЫЙ БАНК

Поиск по сайту







    MMeshuggah • Future Breed-machine (аккорды и текст - chords & lyrics)


    301

    Print

    Видео «Future Breed-machine (Meshuggah)»

    Видео клипы к песне подбираются автоматически сайтом youtube. Возможны некоторые несоответствия клипов песне.

    ↑ Спрятать рекламу ↑



    Download



     
    
    
    TITLE: Future Breed Machine
    
    BY: M E S H U G G A H
    
    FROM THE ALBUM:  DESTROY ERASE IMPROVE
    
    TABBED BY:  CHUNKFREAK@AOL.COM
    
    
    
    riff 1 0.30
    
    |-------------|-------------|
    
    |-------------|-------------|
    
    |-------------|-------------|
    
    |-------------|-------------|
    
    |222-22-22-222|222-22-22-222|
    
    |000-00-00-000|000-00-00-000|
    
    
    riff 2 0.41
    
    |-------------------|-----------------------|
    
    |-------------------|-----------------------|
    
    |-------------------|-----------------------|
    
    |-------------------|-----------------------|
    
    |445-4/5-445-4/5-4/5|445-4/5-4/5-445-4/5-4/5|
    
    |223-2/3-223-2/3-2/3|223-2/3-2/3-223-2/3-2/3|
    
    
    riff 3 0.52 
    
    |--------------|--------------|--------------|----------------|----------
    ----|--------------|
    
    |--------------|--------------|--------------|----------------|----------
    ----|--------------|
    
    |--------------|--------------|--------------|----------------|----------
    ----|--------------|
    
    |--------------|--------------|--------------|---5------------|----------
    ----|--------------|
    
    |54-4--54-4-4-4|54-4--54-4-4-4|54-4--54-4-4-4|---354--54-4-4-4|54-4--54-4
    -4-4|54-4--54-4-4-4|
    
    |32-2--32-2-2-2|32-2--32-2-2-2|32-2--32-2-2-2|22--32--32-2-2-2|32-2--32-2
    -2-2|32-2--32-2-2-2|
    
    
    
    riff 4 1.03 
    
    |----------------|----------------|----------------|-----------------|---
    -------------|----------------|
    
    |----------------|----------------|----------------|-----------------|---
    -------------|----------------|
    
    |----------------|----------------|----------------|-----------------|---
    -------------|----------------|
    
    |----------------|----------------|----------------|-----------------|---
    -------------|----------------|
    
    |---4-----5-5-4--|---4-----5-5-4--|---4-----5-5-4--|--5-44--5-5-5-4--|---
    4-----5-5-4--|---4-----5-5-4--|
    
    |02-2--03-3-3-2--|02-2--03-3-3-2--|02-2--03-3-3-2--|023-22-03-3-3-2--|02-
    2--03-3-3-2--|02-2--03-3-3-2--|
    
    
    riff 5 1.15
    
    |------------------------|------------------------|----------------------
    --|----------------------------------|
    
    |------------------------|------------------------|----------------------
    --|----------------------------------|
    
    |------------------------|------------------------|----------------------
    --|----------------------------------|
    
    |------------------------|------------------------|----------------------
    --|----------------------------------|
    
    |6-5-3-2-2-2-2-2-2-2-2-2-|5-6-5-2-2-2-2-2-2-2-2-2-|6-5-3-2-2-2-2-2-2-2-2-
    2-|22--2-22--2-22--2-22--2-22--2-22-2|
    
    |4-3-1-0-0-0-0-0-0-0-0-0-|3-4-3-0-0-0-0-0-0-0-0-0-|4-3-1-0-0-0-0-0-0-0-0-
    0-|00--0-00--0-00--0-00--0-00--0-00-0|
    
    
    
    riff 3 1.25 
    
    
    
    riff 4 1.36 
    
    
    
    riff 6 1.47 
    
    |---|--------------------------------|
    
    |---|--------------------------------|
    
    |---|--------------------------------|
    
    |---|----------------------(7-7)-----|
    
    |---|4-4----4-4------4-4----5-5------|
    
    |00-|6-6-00-6-6-0310-6-6-00-6-6-03130|
    
    
    riff 7 1.47 
    
    |-------------|-------------|-----------|
    
    |-------------|-------------|-----------|
    
    |-------------|-------------|-----------|
    
    |-------------|-------------|4----------|
    
    |-------------|-------------|4----------|
    
    |00-00-00-0000|00-00-00-0000|2----------|
    
    
    riff 8 2.26
    
    
    
    |-----------------|
    
    |-----------------|
    
    |-----------------|
    
    |-----------------|
    
    |-------2-----1-2-|
    
    |3-2-0----3-2-----|
    
    
    
    riff 9 2.34 
    
    |----------------|
    
    |----------------|
    
    |----4-------3-4-|
    
    |5-4-2---5-4-3-4-|
    
    |5-4-2---5-4-1-2-|
    
    |3-2-0---3-2-----|
    
    
    
    first solo 2.44 
    
    
    
    |------------------------------------------------------------------------
    -------------------------------------------------------------------------
    ---------------------------------------------------19-------21-------|
    
    |------------------------------------------------------------14-14-14-14-
    15-14-----14-14-14-15-17-15-14-------------------------------------------
    ------------------------14-------19----------19-20----20-19----------|
    
    |-----------------------------------------------15-----------------------
    -------------------------------16-15-------------------------------------
    ---------------------------------------19-21-------------------------|
    
    |9-11----12-11-9-8---------9-11-----11-12-14-12----17-16-----------------
    -------------------------------------17-16-12-14---16------14------------
    -------------14-16---17----17-16-------------------------------------|
    
    |------------------9-7-9-------------------------------------------------
    --------------------------------------------------------17----16---------
    ----14-15-16---------------------------------------------------------|
    
    |------------------------------------------------------------------------
    ---------------------------------------------------------------------15-1
    4--------------------------------------------------------------------|
    
    
    
    riff 10 3.19
    
    |--------------------------------|
    
    |--------------------------------|
    
    |----4-------4-------4---------3-|
    
    |5-4-2---5-4-2---5-4-2---5-4-2-3-|
    
    |5-4-2---5-4-2---5-4-2---5-4-2-1-|
    
    |3-2-0---3-2-0---3-2-0---3-2-0---|
    
    
    
    riff 11 3.42 
    
    |----------------------------|
    
    |----------------------------|
    
    |----------------------------|
    
    |----------------------------|
    
    |----------------------------|
    
    |222222222-------222222222---|
    
    
    
    riff 12 4.31 
    
    |----------------------------|
    
    |----------------------------|
    
    |----------------------------|
    
    |----------------------------|
    
    |----------------------------|
    
    |2--2--2--2------2--2--2--2--|
    
    
    
    riff 13 4.39 
    
    |----------------------------|
    
    |----------------------------|
    
    |----------------------------|
    
    |----------------------------|
    
    |----------------------------|
    
    |2---2---2---2---2---2---2--2|
    
    
    
    riff 2 4.52
    
    
    
    riff 2 4.58 
    
    
    
    riff 14 5.08 
    
    |------------------------|------------------------|----------------------
    --|------------------------|
    
    |------------------------|------------------------|----------------------
    --|------------------------|
    
    |------------------------|------------------------|----------------------
    --|------------------------|
    
    |------------------------|------------------------|----------------------
    --|------------------------|
    
    |6-5-3-2-2-2-2-2-2-2-2-2-|5-6-5-2-2-2-2-2-2-2-2-2-|6-5-3-2-2-2-2-2-2-2-2-
    2-|5-6-5-2-2-2-2-2-2-2-2-2-|
    
    |4-3-1-0-0-0-0-0-0-0-0-0-|3-4-3-0-0-0-0-0-0-0-0-0-|4-3-1-0-0-0-0-0-0-0-0-
    0-|3-4-3-0-0-0-0-0-0-0-0-0-|
    
    
    
    riff 6 5.19 
    
    |---|--------------------------------|
    
    |---|--------------------------------|
    
    |---|--------------------------------|
    
    |---|----------------------(7-7)-----|
    
    |---|4-4----4-4------4-4----5-5------|
    
    |00-|6-6-00-6-6-0310-6-6-00-6-6-03130|
    
    
    
    riff 1 5.36
    
    |-------------|-------------|
    
    |-------------|-------------|
    
    |-------------|-------------|
    
    |-------------|-------------|
    
    |222-22-22-222|222-22-22-222|
    
    |000-00-00-000|000-00-00-000|
     

    Тональность:

    Нет текста!



    Назад
    Рекомендуем посмотреть другие песни исполнителя «Meshuggah»:

    • Комментарии Facebook ()
    • Комментарии ВКонтакте



    Добавить в Избранное Браузера
    Сохранить здесь Очистить


    x

    0


    +
    -

    +
    -

    -

    Авторизация





    Зарегистрироваться

    M

    Дата и время

    • 03:28:28
       

    Социальные ссылки


    Наши приложения

    • Muzbank App Play Market
    • Muzbank Amazon App